Oops, an error
Loading. Please wait.

Nacido Bajo Un Signo Malo bass

by Pappo
91 views 1 this week
no commentswrite comment
1 2 3 4 5
3 more votes to show rating
add to favorites
×
Save as Personal and add changes to this tab that will be seen only by you. Learn more ›
×
You can save this tab as Personal to edit and correct it or add notes. All changes will be seen only by you. Learn more »
launch autoscroll
font size
0
reset
guitar tuner
edit
Autoscroll
slow
fast
+/-
esc
set tempo
stop
Versión Corregida
Este blues es un cover de Jimi Hendrix o de Cream.
Es facil de tocar en bajo ya que no cambia demasiado su
estructura ni tiene ningun relleno.
                       ?Nacido bajo un signo??
           x2                     x2
G|-----------------------|-----------------------|
D|---------5-------------|---------5-------------|
A|------5-7-7-------5----|------5-7-7-------5----|
E|-5-5h8-------5-5h8-3-0-|-5-5h8-------5-5h8-3-0-|

                             ?Mala suerte y problemas??
            ?Si no fuera??             x4                x1
A|---------------------------|-----------------------|--------------|
D|---------------------------|---------5-------------|---------5----|
A|---------------------------|------5-7-7-------5----|------5-7-7---|
E|-5-555-6-7-777-6-5-555-3-0-|-5-5h8-------5-5h8-3-0-|-5-5h8--------|

                              (solo de guitarra)
            ?Si no fuera??             x4
G|---------------------------|-------------------------|
D|---------------------------|---------5---------------|
A|---------------------------|------5-7-7---------5----|
E|-5-555-6-7-777-6-5-555-3-0-|-5-5h8---------5-5h8-3-0-|

G|---------------------------------------|
D|---------------------------------------|
A|---------------------------------------|
E|-5-555-6-7-777-6-5-555-6-7-777-6-5---0-|

?Mala suerte y problemas??
           x4               x1
G|------------------------|--------------|
D|---------5--------------|---------5----|
A|------5-7-7--------5----|------5-7-7---|
E|-5-5h8--------5-5h8-3-0-|-5-5h8--------|
                                          ?Nacido bajo un signo??
  ?Si no fuera por??                               x4
G|---------------------------------------|-----------------------|
D|---------------------------------------|----------5------------|
A|---------------------------------------|-------5-7-7------5----|
E|-5-555-6-7-777-6-5-555-6-7-777-6-5---0-|-5-5h8-------5-5h8-3-0-|

h: hammer on (ligado)

Nacido bajo un signo malo (Jimi Hendrix)

Nacido bajo un signo malo
En verdad podria ser peor
Si no fuera por mala suerte
No tendria suerte hoy

Mala suerte y problemas
Me hicieron perder
A mi mejor amigo amigo mas fiel
Nacido bajo un signo malo
En verdad podria ser peor
Si no fuera por mala suerte
No tendria suerte hoy

Mala suerte y problemas
Me hicieron perder
A mi mejor amigo amigo mas fiel
Nacido bajo un signo malo
En verdad podria ser peor
Si no fuera por mala suerte
No tendria suerte
Si no fuera por mala suerte
No tendria suerte hoy

Nacido bajo un signo malo
Nacido bajo un signo malo

Mientras su musica se siga tocando y escuchando el carpo
jamas morira, vivira eternamente en la memoria de todos...
e-mail: zarathustra4321@

            
            
Suggest correction
Creating personal tab
Creating personal tab
You can edit any tab online and save it as your Personal.

You can edit, replace or remove any tab part or add personal notes – all changes will be seen only by you.

Personal tabs can be accessed anytime from any device, even offline.
Learn more »
Give kudos to tab author, rate the tab!
1 2 3 4 5
comments
print report bad tab
guest
Wanna post a correction for this tab? Suggest correction