Oops, an error
Loading. Please wait.

Siempre Es Lo Mismo Nena tab

by Pappo
238 views 1 this week
no commentswrite comment
1 2 3 4 5
3 more votes to show rating
add to favorites
×
Save as Personal and add changes to this tab that will be seen only by you. Learn more ›
×
You can save this tab as Personal to edit and correct it or add notes. All changes will be seen only by you. Learn more »
launch autoscroll
font size
0
reset
how to read this tab
guitar tuner
edit
Autoscroll
slow
fast
+/-
esc
set tempo
stop
 Pappo
 Siempre es lo mismo nena                      
     

   Intro                   
-::--------------------------------------------------------------------------::- 
-::--------------------------------------------------------------------------::- 
-::--------------------------------------------------------------------------::- 
-::-0-7-5------------0-7-5-----------0-7-5-----------0-7-5-----------0-7-5---::- 
-::-0-5-3-7-7-7-7-7--0-5-3-7-7-7-7-7-0-5-3-7-7-7-7-7-0-5-3-7-7-7-7-7-0-5-3---::- 
-::-------5-5-5-5-5--------5-5-5-5-5-------5-5-5-5-5-------5-5-5-5-5---------::- 

   Riff A                                               x2 
-::-----------------------------------------------------::- 
-::-----------------------------------------------------::- 
-::-----------------------------------------------------::- 
-::------------0-7-5-------------0-7-5-------------0-7-5::- 
-::-7-7-7-7-7--0-5-3--7-7-7-7-7--0-5-3--7-7-7-7-7--0-5-3::- 
-::-5-5-5-5-5---------5-5-5-5-5---------5-5-5-5-5-------::- 

Riff B                                  
-::-------------------------------------::- 
-::-------------------------------------::- 
-::-------------------------------------::- 
-::-9-9-9-9-9-9-9--8--7-7-7-7-7-7-7--5--::- 
-::-7-7-7-7-7-7-7--6--5-5-5-5-5-5-5--3--::- 
-::-------------------------------------::- 

Riff C                                  
-::-------------------------------------::- 
-::-------------------------------------::- 
-::-------------------------------------::- 
-::-9-9-9-9-9-9-9--8--7-----------------::- 
-::-7-7-7-7-7-7-7--6--5-----------------::- 
-::-------------------------------------::- 


Riff D                                  
-::-------------------------------------::- 
-::-------------------------------------::- 
-::-------------------------------------::- 
-::-3-3-3-3-4-4-4-4-7-7-7-7-6-6-6-6 9---::- 
-::-5-5-5-5-6-6-6-6-5-5-5-5-8-8-8-8-7 --::- 
-::-------------------------------------::- 

Riff E
-::-9---8---7---6---5---4---3---2---2-::- 
-::--8---7---6---5---4---3---2---1--1-::- 
-::---9---9---7---6---5---4---3---2-2-::- 
-::-----------------------------------::- 
-::-----------------------------------::- 
-::-----------------------------------::- 


con Riff A

Siempre es lo mismo nena
Tu madre y tu padre están 
convencidos de que un bajo soy 

Siempre es lo mismo nena
Hasta parecen dos verdugos 
en blanca ejecución

Riff B                                  

Trata de recombercelos 
O de lo contrario entre rejas 
Quedare yo.


con Riff A

Hooo siempre es lo mismo nena
El novio de la nena doctor tiene que seer

Siempre es lo mismo nena
Estoy un poco harto de aguantar a tu papa..
O a tu mama que es lo mismo

Con Riff B

Porque no vienes conmigo..
Y juntos viviremos desde hoy

Se repite riff A y riff b dos veces

Con Riff A 

Mucho que comer no tengo 
ni tampoco tengo alcobas 
de las que vistes por ahí..

Un par de mantas y una estufa 
Y hasta tengo un ropero para tus cosas guardaar
porque yo no tengo nada

Con riff C 

Pero si tengo algo que sobra y es lindo
Es música música siempre si..

Conriff D

Fin Con riff E
Un saludo para la gente de Enemigo Publico en Quito 'Ecuador' 
en expecial a Diego Naranjo Para super Trans y a abuelito En españa

Hecho por:
Diego Aguirre
DIEGIOLUZVEL@

            
            
Suggest correction
Creating personal tab
Creating personal tab
You can edit any tab online and save it as your Personal.

You can edit, replace or remove any tab part or add personal notes – all changes will be seen only by you.

Personal tabs can be accessed anytime from any device, even offline.
Learn more »
Give kudos to tab author, rate the tab!
1 2 3 4 5
comments
print report bad tab
guest
Wanna post a correction for this tab? Suggest correction