Oops, an error
Loading. Please wait.

Tema 1 (O Hay Tiempo Para Elegir) bass

by Pappo
67 views 3 this week
no commentswrite comment
1 2 3 4 5
3 more votes to show rating
add to favorites
×
Save as Personal and add changes to this tab that will be seen only by you. Learn more ›
×
You can save this tab as Personal to edit and correct it or add notes. All changes will be seen only by you. Learn more »
launch autoscroll
font size
0
reset
guitar tuner
edit
Autoscroll
slow
fast
+/-
esc
set tempo
stop
Siendo un tema de Pappo, el flaco Spinetta lo toco en su primer disco solista
?Spinettalandia y sus amigos? (1970) haciendo una furiosa versión
(recomendable)de este tema, pero llamándolo Castillo de Piedra.
Luego Pappo lo grabo en Pappo´s Blue´s Volumen 7 (1978). Esta transcripción
esta hecha del disco ?Volumen 2?.


       (4 vueltas)
G|-----------------------|-----------------------
D|-----------------------|-----------------------  Parte
A|--7--7--7--7--7--------|-----------------------    A
E|-0--0--0--0--0--8-7----|-5-3---2-0-----5--7-8--

G|--------------------------------------------------
D|--------------------------------------------------
A|-------------------------------3-5--7-8--3-5--7-8-
E|-3-5--7-8--3-5--7-8--3-5--7-8---------------------

G|-------------------------------------------------------------
D|-------------------------------------------------------------
A|---------------------5-7--9-10--3-5--7-8---------------------
E|-3-5--7-8--3-5--7-8-----------------------3-5--7-8--3-5--7-8-

      ?A ver con cual nos quedamos?         ?no es que este desesperado?
G|------------------------------------------------------------
D|------------------------------------------------------------
A|-----------------------------------------3-5--7-8--3-5--7-8-
E|-3-5--7-8--3-5--7-8--3-5--7-8--3-5--7-8---------------------

 ?hay tiempo para?    ?oh no?    ?oh ye?    ?wah?
G|-------------------------------------------------------------
D|-------------------------------------------------------------
A|---------------------5-7--9-10--3-5--7-8---------------------
E|-3-5--7-8--3-5--7-8-----------------------3-5--7-8--3-5--7-8-

Repite todo lo de arriba desde el principio una vez mas. Despues:

1:57
G|---------------------------------------------------------------------
D|---------------------------------------------------------------------
A|-0--2-3--2-3--2-3--2|3-0--2-3--2-3--2-3--2|3-0--2-3--2-3--2-3--2|3-3-
E|---------------------------------------------------------------------

(14 veces)                             2:29
G|-------|------------|---------------|---------5/17------------14-------------
D|-------|------------|---------------|----------------------------------------
A|-2|2-3-|-2-3--2-3-?-|-3-3-3-3-3-3-?-|-14h15----------------------------------
E|-------|------------|---------------|----------------------------------------


     /: slide up (?arrastrar? hacia adelante)
     h: hammer on (ligado)
 x |x : tocar las dos notas consecutivamente rápido por Ej. 2|2


Tema I (Pappo)

A ver con cuál nos quedamos,
tenemos que decidir,
no es que esté desesperado,
hay tiempo para elegir,
oh no, oh yeah, uah!

En un Castillo de piedra,
veo las aves pasar,
no creas que soy muy listo,
pero aquí he de quedar,
oh no, oh yeah, uah!


Mientras su musica se siga tocando y escuchando el carpo jamas morira,
vivira eternamente en la memoria de todos.

            
            
Suggest correction
Creating personal tab
Creating personal tab
You can edit any tab online and save it as your Personal.

You can edit, replace or remove any tab part or add personal notes – all changes will be seen only by you.

Personal tabs can be accessed anytime from any device, even offline.
Learn more »
Give kudos to tab author, rate the tab!
1 2 3 4 5
comments
print report bad tab
guest
Wanna post a correction for this tab? Suggest correction