Oops, an error
Loading. Please wait.

The Thrill Is Gone bass

by Pappo
100 views 1 this week
no commentswrite comment
1 2 3 4 5
3 more votes to show rating
add to favorites
×
Save as Personal and add changes to this tab that will be seen only by you. Learn more ›
×
You can save this tab as Personal to edit and correct it or add notes. All changes will be seen only by you. Learn more »
launch autoscroll
font size
0
reset
guitar tuner
edit
Autoscroll
slow
fast
+/-
esc
set tempo
stop
Las primeras tres partes sirven para todo el tema. Puse todas las
las vueltas por las dudas.

G|------------------------------------------------------------
D|------------------------------------------------------------
A|--------5---5-7--------5---7----------5---5-7--------5---7--
E|-0----7---7-----0----7---7---5-0----7---7-----0----7---7---3

G|------------------------------------------------------------
D|--------5---5-7--------7-5----------------------------------
A|-0----7---7-----0----7-----7----------5---5-7----------5-3-0
E|-------------------------------0----7---7-----0----0-0------

                                                  ?The thrill is?
G|-------------------------------------------------------------
D|-------------------------------------------------------------
A|-3----3---3-----2-----2-2------7------5---5-7--------5-------
E|---------3-----2-----2-------7------7---7-----0----7---0-3-5-

gone?               ?the thrill is gone away?          ?the thrill is?
G|------------------------------------------------------------
D|------------------------------------------------------------
A|--------5---5-7------------7----------5---5-7--------5-----5
E|-0----7---7-----0----0-5-0-----0----7---7-----0----7---7----

?gone baby?           ?the thrill is gone away?           ?you?
G|------------------------------------------------------------
D|-7------5---5-7---------------------------------------------
A|------7---7-----0--2-2--3---5--7------5---5-7------7-----7--
E|------------------------------------7---7-----0------7-5---5

?know you done me wrong baby,and you?ll be sorry someday,the trill?
G|------------------------------------------------------------
D|------------------------------------------------------------
A|-3----3-3-----2--2----2-2------7------5---5-7--------5---7--
E|-------------2-------2-------0------7---7-----0----7---7---7

?is gone?            ?is gone away from me?         ?the thrill is?
G|------------------------------------------------------------
D|------------------------------------------------------------
A|--------5---5-7-7------5-----7--------5---5-7--------5---7--
E|-0----7---7----------7---7-----0----7---7-----0----7---7----

?gone baby?          ?is gone away from me?             ?although i?ll?
G|------------------------------------------------------------
D|--------5---5-7---------------------------------------------
A|-0----7---7-----0--2---3-3-5---7------5---5-7--------5---5--
E|------------------------------------7---7-----0----7---7---5

?still live on?            ?but so lonely i?ll be?
G|------------------------------------------------------------
D|------------------------------------------------------------
A|-3--3----3-3----2--2--2--2-----7------5---5-7--------5---5-7
E|--------3-----2--------------0------7---7-----0----7---7----

G|------------------------------------------------------------
D|---------------------------5--------------------------------
A|--------5---5-7--------5-----7--------5---5-7--------5---5-7
E|-0----7---7-----0----7---7-----0----7---7-----0----7---7----

G|------------------------------------------------------------
D|--------5---5-7--------7-5----------------------------------
A|-0----7---7-----0----7-----7-5--------5---5-7---------------
E|-------------------------------0----7---7-----0----0-5-0-7-0

                                                       ?the thrill is?
G|-------------------------------------------------------------
D|-------------------------------------------------------------
A|-3--3----3-3----2----2-2-------7------5---5-7--------5---5-7
E|--------3-----2-----2--------7------7---7-----0----7---7-----

?gone?            ?it?s gone away for good?           ?the thrill is?
G|------------------------------------------------------------
D|---------------------------5--------------------------------
A|--------5---5-7--------5--------------5---5-7--------5------
E|-0----7---7-----0----7---7-----0----7---7-----0----7---7-3--

?gone?              ?is gone away for good?             ?someday i?
G|------------------------------------------------------------
D|--------5---5-7--------5---5--------------------------------
A|-0----7---7-----0----7---7------------5---5-7--------5------
E|-------------------------------0----7---7-----0----7---0-7--

?know i´ll be over it all baby,just like i know a man should?
G|------------------------------------------------------------
D|------------------------------------------5-----------------
A|-3----3-3-------2--2---2-2------------5--------------5---5-7
E|----------------------2--------0----7---7-----0----7---7----

               ?you know i?m free? ?free now baby?
G|------------------------------------------------------------
D|------------------------------------------------------------
A|-7------5---5-7--------5--------------5---5-7--------5---5-7
E|------7---7-----0----7---0-3---0----7---7-----0----7---7----

        ?i?m free?                          ?free for your spell
G|------------------------5---7-------------------------------
D|--------5---5-7---------------------------------------------
A|-0----7---7-----0--3--3---5-----------5---5-7------------5--
E|-------------------------------0----7---7-----0----0-7-0---0


G|------------------------------------------------------------
D|------------------------------------------------------------
A|-3--3--3-3-3----2--2---2-2------------5---5-7--------5---5-7
E|--------------3----------------0----7---7-----0----7---7----

                                 ?i?m free now babe?
G|------------------------------------------------------------
D|------------------------------------------------------------
A|-7------5---5----------5---5----------5---5----------5---5-7
E|------7---7-----0----7---7---7-0----7---7-----0----7---7----

                    ?i?m free for your spell?
G|------------------------------------------------------------
D|--------5---5-7--------5------------------------------------
A|-0----7---7-----0----7---7-5----------5---5-7-7----------5--
E|-------------------------------0----7---7----------0-7-0---0

?and now that it?s over, all i can do is wish you well?
G|------------------------------------------------------------
D|------------------------------------------------------------
A|-3--3--3-3------2--2---2-2-----7------5---5-7--------5---5-7
E|------3-------3-------2------7------7---7-----0----7---7----

G|------------------------------------------------------------
D|------------------------------------------------------------
A|-7------5---5----------5---5-7--------5---5----------5---5-7
E|------7---7---3-0----7---7-----0----7---7-----0----7---7----


G|------------------------------------------------------------
D|--------5---5-7----7-------7--------------------------------
A|-0----7---7-----0----0-7-5---5-7------5---5---7------7------
E|------------------------------------7---7---7------7---7-5-3

G|------------------------------------------------------------
D|------------------------------------------------------------
A|-3--3--3-3------2--2---2-2---7--------5---5-7---------------
E|------3-------3-------2--------0----7---7-----0-------------


The Thrill Is Gone (B.B King)

The thrill is gone
The thrill is gone away
The thrill is gone baby
The thrill is gone away
You know you done me wrong baby
And you'll be sorry someday

The thrill is gone
It's gone away from me
The thrill is gone baby
The thrill is gone away from me
Although I'll still live on
But so lonely I'll be

The thrill is gone
It's gone away for good
The thrill is gone baby
Baby its gone away for good
Someday I know I'll be over it all baby
Just like I know a man should

You know I'm free, free now baby
I'm free from your spell
I'm free, free now babe
I'm free from your spell
And now that it's over
All I can do is wish you well

Mientras su musica se siga tocando y escuchando el carpo jamas morira,
vivira eternamente en la memoria de todos.

            
            
Suggest correction
Creating personal tab
Creating personal tab
You can edit any tab online and save it as your Personal.

You can edit, replace or remove any tab part or add personal notes – all changes will be seen only by you.

Personal tabs can be accessed anytime from any device, even offline.
Learn more »
Give kudos to tab author, rate the tab!
1 2 3 4 5
comments
print report bad tab
guest
Wanna post a correction for this tab? Suggest correction