Oops, an error
Loading. Please wait.

Una Casa Con Diez Pinos bass

by Pappo
70 views 9 this week
no commentswrite comment
1 2 3 4 5
3 more votes to show rating
add to favorites
×
Save as Personal and add changes to this tab that will be seen only by you. Learn more ›
×
You can save this tab as Personal to edit and correct it or add notes. All changes will be seen only by you. Learn more »
launch autoscroll
font size
0
reset
guitar tuner
edit
Autoscroll
slow
fast
+/-
esc
set tempo
stop
G|-----------------------------------------|
D|-----------------------------------------|
A|--------3-5------5-3---------------3-5-7-|
E|-3----6-----0--------6--3----3-3-6-------|

?Una casa con 10 pinos?   ?Hacia el sur hay un lugar?
G|----------------------------------------------------------------------
D|-------------------------------------------------------5--------------
A|----------57----7-7-775-------------57-----3----3-3-3h5-------------5-
E|-5---55-7---0----------7-5----055-7---0-----------------3----3303033--

     ?Por que ya no?       ?no aguanto mas?
G|-------------------------------------------|
D|------------5------------------------------|
A|3----3-3------------------4-4-4-4--4-4-4-5-|
E|--------------3----330303------------------|

?Vivir en la ciudad, solo humo y soledad?                    ?Nunca mas
G|------------------------------------------------------------------------
D|------------------------------------------------------------------------
A|-----7-7-75-0-----------5-7----7-7--75-0-----------5-7--------3--3--3-3-
E|-0-----------3-03-3-3-68----------------3---3-3-68----------------------

nunca mas?? 1:00?En la ciudad?
G|--------------|
D|--------------|
A|-5-5--------5-|
E|-----2h3-4----|

                  ?Un jardin y mis??
G|-----------------------------------------------------------------
D|-----------------------------------------------------------------
A|------7-7---------------5-7---7-7--5-------------57-----353--3---
E|-0-----------5---555-7----------------5-05-5-7-7---0---6---60----

?Con el humo infernal??                     ?Para lograr o conseguir??
G|------------------------------------------------------------------|
D|-------5-------------------------5--------------------------------|
A|-3-3-3h----------------3--3-3-3h5----------------4-4-4-4--4-4-4-5-|
E|--------3-3----3-3--6-------------3-3---3030303-------------------|

                 ?Dinero y nada mas?? 1:42
G|-----------------------------------------------------------------
D|-------------5---------------------------------------------------
A|------7-7--57------------5-7---7-7-75------------5-7-----7-7--5--
E|-0--------0---3---33-6-68-------------7-3-33-6--8---0------------

              ?Bajo el sol, antes de morir?
G|--------------------------|
D|--------------------------|
A|3---3-3--35--5----------5-|
E|----------------43-344-4--|

                    2:01
G|--------------------------------------------------------------------
D|---------------------------------------------------------------5----
A|----7-7--------------5----7-7-5------------7--------3---3-3-3h5-----
E|-0-------5---5-5--77--0---------5---050505----------------------3-3-

G|---------------------------------------------------|
D|---------------------5-----------------------------|
A|----------3---3-3-3h5-------------4-4-4-4--4-4-4-5-|
E|-030303---------------3-3-030303-------------------|

G|------------------------------------------------------------------------
D|------------------------------------------------------------------------
A|------7-7--------------3-5-7----7-7-75-----------5--------7-7---5----3--
E|-0--------3/15---333-36--------0-------3---03-3-6---0-------------------

         2:46
G|------------------------|
D|------------------------|
A|--3-3-334-5-----------5-|
E|-------------433344-4---|

               ?No hay preguntas que hacer??                    ?Solo se??
G|---------------------------------------------------------------------
D|---------------------------------------------------------------------
A|----7-7---5------------57-----7-7--75------------5-57--------3---3-3-
E|-0-----------5---55-57---0-----------7-5----5-5-7----0---------------

                                 3:12 ?Para ganar o empatar, prefiero??
G|----------------------------------------------------------|
D|---5------------------------5-----------------------------|
A|3h5--------------3---3-3-3h5-------------4-4-4-4--4-4-4-5-|
E|----3---3030303--------------3---330303-------------------|

                  ?Mirar dentro de??             ?Fumar o dibujar??
G|-------------------------------------------------------------------
D|-------------------------------------------------------------------
A|-----7-7-7------------------7----7-7-7p5-----------5-7----7-5------
E|-0------------3----30-033--0-------------3----3-3------------75--3-

  ?Para que complicar??
G|---------------------------------------------------------
D|---------------------------------------------------------
A|----------3-5-7----77-7-75---------------57----7-7-75----
E|-3----3336----------------7-3----33-3-68------0------7-3-

?Prefiero sonreir?       ?Mirar dentro de mi??
G|--------------------------------------------------
D|--------------------------------------------------
A|-------5-7----757-75--------------57----7-7-75----
E|-33-3-6--------------7-3---33-3-68-----0------7-3-

          3:59
G|-------------------------------------------------------
D|-------------------------------------------------------
A|--------57-----7-7-7-75--------------57-----7-7--75----
E|-33-3-68--0---0--------7-3---33-3-68---0---0-------7-3-

G|--------------------------------------------------
D|--------------------------------------------------
A|--------57-----7-7-75------------57-----7-7-75----
E|-33-3-68--0---0------7-3---33-68---0----------7-3-

G|---------------------------------------------
D|---------------------------------------------
A|--------5------7-7-5---------5-7-----7-7-5---
E|-33-3-6---0----------3--3-3-6-------0------3-
                                           4:40
G|---------------------------------------------
D|---------------------------------------------
A|---------5-7-----7-7-5--------5-7----7-7-5---
E|-3--3-3-6-------0-----3--3-3-6---0---------3-

G|-----------------------------------------------
D|-----------------------------------------------
A|-------5-7----7-7--5-----------5-7----7-7--5---
E|-30-6-8--------------3---30-6-8--------------3-

G|------------------------------------------------|
D|------------------------------------------------|
A|-------5-7----7-7--5------------57----7-7--5----|
E|-30-6-8--------------3---30-3-68--------------3-|

p: pull off
h: hammer on
s: slide off
/: slide up

Una casa con 10 pinos (Manal)

Una casa con 10 pinos
hacia el sur hay un lugar
ahora mismo voy alla
por que ya no aguanto mas
No aguanto mas, no aguanto mas
Vivir en la ciudad
solo humo y soledad
nada mas que respirar
nunca mas, nunca mas
en la ciudad

Una jardin y mis amigos
no se pueden comparar
con el humo infernal
de esta guerra de ambicion
para lograr o conseguir
Prestigio en la ciudad
dinero y nada mas
sin tiempo de observar
un jardin bajo el sol
antes de morir

No hay preguntas que hacer
una simple reflexion
solo se puede elegir
oxidarse o resistir
Para ganar o empatar
prefiero sonreir
mirar dentro de mi
fumar o dibujar
Para que complicar, complicar
Prefiero sonreir
mirar dentro de mi
fumar o dibujar
Para que complicar, complicar
Para que complicar, prefiero sonreir

Si le encuentran algun error por favor mandenme un mail
Mientras su musica se siga tocando y escuchando el carpo jamas
morira, vivira eternamente en la memoria de todos...
e-mail: zarathustra4321@

            
            
Suggest correction
Creating personal tab
Creating personal tab
You can edit any tab online and save it as your Personal.

You can edit, replace or remove any tab part or add personal notes – all changes will be seen only by you.

Personal tabs can be accessed anytime from any device, even offline.
Learn more »
Give kudos to tab author, rate the tab!
1 2 3 4 5
comments
print report bad tab
guest
Wanna post a correction for this tab? Suggest correction