Oops, an error
Loading. Please wait.

Yo Me Quedo Con Lucy bass

by Pappo
43 views 1 this week
no commentswrite comment
1 2 3 4 5
3 more votes to show rating
add to favorites
×
Save as Personal and add changes to this tab that will be seen only by you. Learn more ›
×
You can save this tab as Personal to edit and correct it or add notes. All changes will be seen only by you. Learn more »
launch autoscroll
font size
0
reset
guitar tuner
edit
Autoscroll
slow
fast
+/-
esc
set tempo
stop
?Bienvenido a la corte Sam?
                              (4 veces)
G|------------------------------------------------------------------------|
D|------------------------------------------------------------------------|
A|------------------------------------------------------------------------|
E|--5----3----0-0----0--3-5--3--0--------5----3----0-0----0--3-5--3--0----|
?Entre mortajas de hierro moriras??
G|-------------------------------------------------------------
D|-------------------------------------------------------------
A|---------------------------------------------5---5---5--5--5-
E|-3/5--5--5--5--5--5--5--5--5--5--5--5--5--5------------------
?Por tus entrañas sangre derramaras??
G|------------------------------------------------------------------------
D|------------------------------------------------------------------------
A|---------------------------------------------5---5---5--5--5--3-3---5-5-
E|-3/5--5--5--5--5--5--5--5--5--5--5--5--5--5-----------------------------
?Noqueste el futuro?
                              (2 veces)
G|------------------------------------------------------------------------|
D|------------------------------------------------------------------------|
A|------------------------------------------------------------------------|
E|--5----3----0-0----0--3-5--3--0--------5----3----0-0----0--3-5--3--0----|
?Te han declarado culpable por indignar??
G|-------------------------------------------------------------
D|-------------------------------------------------------------
A|---------------------------------------------5---5---5--5--5-
E|-3/5--5--5--5--5--5--5--5--5--5--5--5--5--5------------------
?Y faltarle el respeto a los reyes del mal??
G|------------------------------------------------------------------------
D|------------------------------------------------------------------------
A|---------------------------------------------5---5---5--5--5--3-3---5-5-
E|-3/5--5--5--5--5--5--5--5--5--5--5--5--5--5-----------------------------
(empieza el solo de guitarra)
G|------------------------------------------------------------------
D|------------------------------------------------------------------
A|------------------------------------------------------------------
E|-3-3---3--3-3-3---3-3---3-3-3-6---3-3---3--3-3-3---3-3---3-3-3-1--

G|---------------------------------------------------------------------
D|----------------------------------------------------------------------
A|-------------------------7-5---------------------------------5--7p5-5-
E|-0-0--0--0-0--0--0-0--0------7-5-0-0--0--0-0--0--0-0--0--5h7----------

G|----------------------------------------------------------------
D|----------------------------------------------------------------
A|----------------------------------------------------------------
E|-3-3--3--3-3--3--3-3--3--3-3-6---3-3--3--3-3--3--3-3--3--3-3-1--

G|--------------------------------------------------------------------
D|--------------------------------------------------------------------
A|-----------------7-7--7h10--7------5------7h10---7h10-----7h10-7h10-
E|-0-0--0--0-0--0----------------3h7----0-0------0------0-0-----------

G|----------
D|----------
A|-7-5------
E|-----7-5--
2:36
G|-----------------------------------------------------------------
D|-----------------------------------------------------------------
A|-----------------------------------------------------------------
E|-3-3--3--3-3--3--3-3--3--3-3-6---3-3--3--3-3--3--3-3--3--3-3-1-1-

G|------------------------------------------------------------------------
D|------------------------------------------------------------------------
A|-----------------------------5--7p5-5-------5h7-----------------7-7-----
E|-0-0--0--0-0--0--0-0--0--5h7-----------0-0-------0-0--0--0-0--0-----0-0-
2:55
G|-----------------------------------------------------------------
D|-----------------------------------------------------------------
A|-----------------------------------------------------------------
E|-3-3--3--3-3--3--3-3--3--3-3-6---3-3--3--3-3--3--3-3--3--3-3-1-1-

G|------------------------------------------------------------------------
D|------------------------------------------------------------------------
A|-----------------------------5--7-5-------------------------------------
E|-0-0--0--0-0--0--0-0--0--5h7---------0-0--0--0-0--0--0-0--0-------------

G|-----------------------------------------------------------------
D|-----------------------------------------------------------------
A|-----------------------------------------------------------------
E|-3-3--3--3-3--3--3-3--3--3-3-6---3-3--3--3-3--3--3-3--3--3-3-3---

G|------------------------------------------------------------------------
D|-5----------------------------------------------------------------------
A|-3---------------5------------------7-----------------------------------
E|------------------------------------------------------------------------

G|------------------------------------------------------------------------
D|-5----------------------------------------------------------------------
A|-3---------------5------------------7-7-7-7-7-7-7-7-7-7-7-7-7-7-7-10/d--
E|------------------------------------------------------------------------
?Noqueste el futuro?
                              (2 veces)
G|------------------------------------------------------------------------|
D|------------------------------------------------------------------------|
A|------------------------------------------------------------------------|
E|--5----3----0-0----0--3-5--3--0--------5----3----0-0----0--3-5--3--0----|
?Te han declarado culpable por indignar??
G|-------------------------------------------------------------
D|-------------------------------------------------------------
A|---------------------------------------------5---5---5--5--5-
E|-3/5--5--5--5--5--5--5--5--5--5--5--5--5--5------------------
?Y faltarle el respeto a los reyes del mal?                   ?yo me quedo
G|------------------------------------------------------------------------
D|------------------------------------------------------------------------
A|---------------------------------------------5---5---5--5--5--3-3---5-5-
E|-3/5--5--5--5--5--5--5--5--5--5--5--5--5--5-----------------------------
con Lucy?
G|-------------------------------------------------------------------------
D|-------------------------------------------------------------------------
A|--------------------------------0----------------------------------------
E|-------------------------------------------------------------------------
?Si con Lucy tengo??
G|------------------------------------------------------------------------|
D|------------------------------------------------------------------------|
A|------------------------------------------------------------------------|
E|--5----3----0-0----0--3-5--3--0-----------------------------------------|

p: pull off
h: hammer on
/: slide up
/d: slide down

Yo me quedo con Lucy (Pappo - F. Ortiz Márquez)

Bienvenido a la corte Sam,
Ja, ja, ja, ja, ja...

En confianza murió nuestra amistad,
y perdiéndola es seguro condena mortal;
No te queda tiempo ni oportunidad,
el caso está cerrado y no hay pero que valga ya;
Entre mortajas de hierro morirás,
por tus entrañas sangre derramarás.

Noqueaste el futuro ya no hay más que hacer,
ahora tendrás que verte con un tal Lucifer;
te han declarado culpable por indignar,
y faltarle el respeto a los reyes del mal.

Lo siento.

Noqueaste el futuro ya no hay más que hacer,
ahora tendrás que verte con un tal Lucifer;
te han declarado culpable por indignar,
y faltarle el respeto a los reyes del mal;
yo me quedo con Lucy...
si con Lucy, no tengo más en quién confiar.

Mientras su musica se siga tocando y escuchando el carpo jamas morira,
vivira eternamente en la memoria de todos...
e-mail: zarathustra4321@

            
            
Suggest correction
Creating personal tab
Creating personal tab
You can edit any tab online and save it as your Personal.

You can edit, replace or remove any tab part or add personal notes – all changes will be seen only by you.

Personal tabs can be accessed anytime from any device, even offline.
Learn more »
Give kudos to tab author, rate the tab!
1 2 3 4 5
comments
print report bad tab
guest
Wanna post a correction for this tab? Suggest correction