Oops, an error
Loading. Please wait.

El Poder Es Mejor O Peor bass

29 views 3 this week
no commentswrite comment
1 2 3 4 5
3 more votes to show rating
add to favorites
×
Save as Personal and add changes to this tab that will be seen only by you. Learn more ›
×
You can save this tab as Personal to edit and correct it or add notes. All changes will be seen only by you. Learn more »
launch autoscroll
font size
0
reset
guitar tuner
edit
Autoscroll
slow
fast
+/-
esc
set tempo
stop
G|---------------------------------------------------------
D|---------------------------------------------------------
A|-5----------5-----5----5----5--5--------3--2--5----------
E|---------------------------------------------------------

?Gloriosos reyes llenos de encanto, arman fortunas?          \
G|---------------------------------------------------        |
D|---------------------------------------------------        |
A|---------------------------------------------------        |
E|-0-0-0-0-0-0-0-0-0-0-0-0-0-0-0-0-0-0-0-0-0-0-0-0-?-        |
                                                             | Parte
                      (2 veces)                              |   A
?de una tierra de estupida ambicion?                         |
G|--------------------------------------------------------|  |
D|-5--4---------------------------------------------------|  |
A|-------5--5-5-5-5-5-5-5-5-5-5-5--5-7--------------------|  |
E|--------------------------------------0-0-0-0-0-0-0-0-0-|  /

Repite parte A. Despues:

          (4 veces)
?sofisticado es mejor?
G|--------------------------|--------------------------
D|--------------------------|--------------------------
A|------------------1--0----|-2-2-2-2-3-3-3-3-5-5-5-5-7
E|-2--2---2--2---2----------|--------------------------

Repite parte A 2 veces. Despues:

          (4 veces)
?sofisticado es mejor?
G|--------------------------|----------------
D|--------------------------|----------------
A|------------------1--0----|-2-2-2-2-3-3-3-3
E|-2--2---2--2---2----------|----------------

G|--------------------------------------------------------------
D|--------------------------------------------------------------
A|-5-5-5-5-5-5-5-5-5-5-5-5-5-5-5-5-5-5-5-5-5-5-5-5-5-5-5-5-3--2-
E|--------------------------------------------------------------

G|--------------------------------------------------------------------------
D|--------------------------------------------------------------------------
A|-5-5-5-5-5-5-5-5-5-5-5-5-5-5-5-5-5-5-5-5-5-5-5-5-5-3--2--5-5-5-5-5-5-5-5-5
E|--------------------------------------------------------------------------

Repite parte A. Despues:

   (Repite hasta el final)
?sofisticado es mejor?
G|--------------------------|
D|--------------------------|
A|------------------1--0----|
E|-2--2---2--2---2----------|


El poder es mejor o peor (Boff)

Gloriosos reyes llenos de encanto,
arman fortunas y con el llanto;
de una tierra de estúpida ambición,
de quienes quieren derretir.

Es otro día, es otra historia,
premeditada, nada es casual;
aumenta la tensión, algo va a estallar,
no quieren comprender, todo va a acabar.

Sofisticado es mejor, sofisticado es peor;
sofisticado es mejor, sofisticado es peor.

Se hacen del mundo negociando poder,
sin importarles cuántos van a caer;
estaré perdido en este lugar,
hasta poder explotar.

Cuántas mentiras, cuántos engaños,
teniendo en cuenta que son extraños;
llegó el momento de una solución,
que salve al mundo de la destrucción.

Sofisticado es mejor, sofisticado es peor;
sofisticado es mejor, sofisticado es peor.

Mientras su musica se siga tocando y escuchando el carpo jamas morira,
vivira eternamente en la memoria de todos.

            
            
Suggest correction
Creating personal tab
Creating personal tab
You can edit any tab online and save it as your Personal.

You can edit, replace or remove any tab part or add personal notes – all changes will be seen only by you.

Personal tabs can be accessed anytime from any device, even offline.
Learn more »
Give kudos to tab author, rate the tab!
1 2 3 4 5
comments
print report bad tab
guest
Wanna post a correction for this tab? Suggest correction