Oops, an error
Loading. Please wait.
We have an official Aint It Fun tab made by UG professional guitarists. Check out the tab »
×

Aint It Fun chords

148 views 6 this week
no commentswrite comment
1 2 3 4 5
2 more votes to show rating
add to favorites
×
Save as Personal and add changes to this tab that will be seen only by you. Learn more ›
×
You can save this tab as Personal to edit and correct it or add notes. All changes will be seen only by you. Learn more »
launch autoscroll
font size
0
reset
transpose
0
reset
display chords
guitar tuner
backing track
0:00
0:00
edit
Autoscroll
slow
fast
+/-
esc
set tempo
stop
Strumming
There is no strumming pattern for this song yet. and get +5 IQ
Standard Tuning: EADGBE
BPM = 100

[Intro]
e|--------------------|-----------|
B|--------------------|-----------|
G|-----4h6--------4h6-|-----4h6-6-|
D|-6----------6-------|-6---------|
A|---7----------7-----|---7-------|
E|--------------------|-----------|

[Verse 1]
I don't mind letting you down easy, but just give me time
e|---------------------|---------------------|---------------------|
B|---------------------|---------------------|---------------------|
G|-----4h6--------4h6~-|-----4h6--------4h6~-|-----4h6--------4h6~-|
D|-6----------6--------|-6----------6--------|-6----------6--------|
A|---7----------7------|---7----------7------|---7----------7------|
E|---------------------|---------------------|---------------------|

If it don't hurt now then just wait, just wait a while
e|-----------------------------|
B|--------------------5--------|
G|-----4h6--------4h6---6-4-6--|
D|-6----------6----------------|
A|---7----------7--------------|
E|-----------------------------|

You're not the big fish in the pond no more, you are what they're feeding on
e|---------------------|---------------------|---------------------|---------|
B|---------------------|---------------------|---------------------|---------|
G|-----4h6--------4h6~-|-----4h6--------4h6~-|-----4h6--------4h6~-|-----4h6-|
D|-6----------6--------|-6----------6--------|-6----------6--------|-6-------|
A|---7----------7------|---7----------7------|---7----------7------|---7-----|
E|---------------------|---------------------|---------------------|---------|

So what are you gonna do when the world don't orbit around you?
e|---------------------|---------------------|
B|---------------------|---------------------|
G|-----4h6--------4h6~-|-----4h6--------4h6~-|
D|-6----------6--------|-6----------6--------|
A|---7----------7------|---7----------7------|
E|---------------------|---------------------|

So what are you gonna do when the world don't orbit around you?
e|---------------------|-----------|
B|---------------------|-----------|
G|-----4h6--------4h6~-|-----4h6-6-|
D|-6----------6--------|-6---------|
A|---7----------7------|---7-------|
E|---------------------|-----------|

[Chorus]
Ain't it fun living in the real world, ain't it good beeing all alone
e|---------------------|---------------------|---------------------|---------------------|
B|---------------------|---------------------|---------------------|---------------------|
G|---------------------|-----------------9-9-|---------------------|-----------------9-9-|
D|-7-7-7-7--11-11--9-9-|-7-7-7-7--11-11--9-9-|-7-7-7-7--11-11--9-9-|-7-7-7-7--11-11--9-9-|
A|-7-7-7-7--11-11--9-9-|-7-7-7-7--11-11--7-7-|-7-7-7-7--11-11--9-9-|-7-7-7-7--11-11--7-7-|
E|-5-5-5-5--9--9---7-7-|-5-5-5-5--9--9-------|-5-5-5-5--9--9---7-7-|-5-5-5-5--9--9-------|

[Verse 2]
Where you're from, you might be the one who's running things
e|---------------------|---------------------|---------------------|
B|---------------------|---------------------|---------------------|
G|-----4h6--------4h6~-|-----4h6--------4h6~-|-----4h6--------4h6~-|
D|-6----------6--------|-6----------6--------|-6----------6--------|
A|---7----------7------|---7----------7------|---7----------7------|
E|---------------------|---------------------|---------------------|

Well, you can ring anybody's bell to get what you want
e|----------------------------|
B|--------------------5-------|
G|-----4h6--------4h6---6-4-6-|
D|-6----------6---------------|
A|---7----------7-------------|
E|----------------------------|

You see, it's easy to ignore trouble, when you're living in a bubble
e|---------------------|---------------------|--------------------4-----4-|
B|---------------------|---------------------|----------------------7-5---|
G|-----4h6--------4h6~-|-----4h6--------4h6~-|-----4h6--------4h6---------|
D|-6----------6--------|-6----------6--------|-6----------6---------------|
A|---7----------7------|---7----------7------|---7----------7-------------|
E|---------------------|---------------------|----------------------------|

So what are you gonna do when the world don't orbit around you?
e|---------------------|---------------------|----------------|
B|---------------------|---------------------|----------------|
G|-----4h6--------4h6~-|-----4h6--------4h6~-|----------------|
D|-6----------6--------|-6----------6--------|-11--7---7-8----|
A|---7----------7------|---7----------7------|-11----8--------|
E|---------------------|---------------------|-------------12-|

So what are you gonna do when the world don't orbit around you?
e|---------------------|-----------|
B|---------------------|-----------|
G|-----4h6--------4h6~-|-----4h6-6-|
D|-6----------6--------|-6---------|
A|---7----------7------|---7-------|
E|---------------------|-----------|

[Chorus]
Ain't it fun living in the real world, ain't it good beeing all alone
e|---------------------|---------------------|---------------------|---------------------|
B|---------------------|---------------------|---------------------|---------------------|
G|---------------------|-----------------9-9-|---------------------|-----------------9-9-|
D|-7-7-7-7--11-11--9-9-|-7-7-7-7--11-11--9-9-|-7-7-7-7--11-11--9-9-|-7-7-7-7--11-11--9-9-|
A|-7-7-7-7--11-11--9-9-|-7-7-7-7--11-11--7-7-|-7-7-7-7--11-11--9-9-|-7-7-7-7--11-11--7-7-|
E|-5-5-5-5--9--9---7-7-|-5-5-5-5--9--9-------|-5-5-5-5--9--9---7-7-|-5-5-5-5--9--9-------|

Ain't it good to be on your own,  ain't it fun you can't count on no one
e|---------------------|---------------------|---------------------|---------------------|
B|---------------------|---------------------|---------------------|---------------------|
G|---------------------|-----------------9-9-|---------------------|-----------------9-9-|
D|-7-7-7-7--11-11--9-9-|-7-7-7-7--11-11--9-9-|-7-7-7-7--11-11--9-9-|-7-7-7-7--11-11--9-9-|
A|-7-7-7-7--11-11--9-9-|-7-7-7-7--11-11--7-7-|-7-7-7-7--11-11--9-9-|-7-7-7-7--11-11--7-7-|
E|-5-5-5-5--9--9---7-7-|-5-5-5-5--9--9-------|-5-5-5-5--9--9---7-7-|-5-5-5-5--9--9-------|

Ain't it good to be on your own, ain't it fun you can't count on no one
e|---------------------|---------------------|---------------------|---------------------|
B|---------------------|---------------------|---------------------|---------------------|
G|---------------------|-----------------9-9-|---------------------|-----------------9-9-|
D|-7-7-7-7--11-11--9-9-|-7-7-7-7--11-11--9-9-|-7-7-7-7--11-11--9-9-|-7-7-7-7--11-11--9-9-|
A|-7-7-7-7--11-11--9-9-|-7-7-7-7--11-11--7-7-|-7-7-7-7--11-11--9-9-|-7-7-7-7--11-11--7-7-|
E|-5-5-5-5--9--9---7-7-|-5-5-5-5--9--9-------|-5-5-5-5--9--9---7-7-|-5-5-5-5--9--9-------|

Ain't it fun living in the real world
e|----------------|
B|----------------|
G|----------------|
D|-7-7-7-7--11-11-|
A|-7-7-7-7--11-11-|
E|-5-5-5-5--9--9--|

[Bridge]
Don't go crying to your mama 'cause you're on your own in the real world
Don't go crying to your mama 'cause you're on your own in the real world
Don't go crying to your mama 'cause you're on your own in the real world
Don't go crying to your mama 'cause you're on your own in the real world

[Outro]
e|------9-12-9----9-------9-12-9------------9-12-9----9-14-14-12-9-|
B|-9-12--------12----9-12--------12-14-9-12--------12--------------|
G|-----------------------------------------------------------------|
D|-----------------------------------------------------------------|
A|-----------------------------------------------------------------|
E|-----------------------------------------------------------------|

e|------9-12-9----9-------9-12-9------------9-12-9----9-14-14-16-12-|
B|-9-12--------12----9-12--------12-14-9-12--------12---------------|
G|------------------------------------------------------------------|
D|------------------------------------------------------------------|
A|------------------------------------------------------------------|
E|------------------------------------------------------------------|

e|------9-12-9----9-------9-12-9------------9-12-9----9-14-14-12-9-|
B|-9-12--------12----9-12--------12-14-9-12--------12--------------|
G|-----------------------------------------------------------------|
D|-----------------------------------------------------------------|
A|-----------------------------------------------------------------|
E|-----------------------------------------------------------------|

e|------9-12-9----9-------9-12-9------------9-12-9----9-14-14-16-12-|
B|-9-12--------12----9-12--------12-14-9-12--------12---------------|
G|------------------------------------------------------------------|
D|------------------------------------------------------------------|
A|------------------------------------------------------------------|
E|------------------------------------------------------------------|



************************************

| h  Hammer-on
| ~  Vibrato

************************************

            
            
Suggest correction
Creating personal tab
Creating personal tab
You can edit any tab online and save it as your Personal.

You can edit, replace or remove any tab part or add personal notes – all changes will be seen only by you.

Personal tabs can be accessed anytime from any device, even offline.
Learn more »
Give kudos to tab author, rate the tab!
1 2 3 4 5
comments
print report bad tab
guest
You may want to rate the tab now too:
select rating
Wanna post a correction for this tab? Suggest correction