Oops, an error
Loading. Please wait.
We have an official Aint It Fun tab made by UG professional guitarists. Check out the tab »
×

Aint It Fun tab

version 1
version 1

Whole song

Interactive

192,275 views 252 this week
6 commentsread comments
1 2 3 4 5
x 79
add to favorites
×
Save as Personal and add changes to this tab that will be seen only by you. Learn more ›
×
You can save this tab as Personal to edit and correct it or add notes. All changes will be seen only by you. Learn more »
launch autoscroll
font size
0
reset
how to read this tab
guitar tuner
backing track
0:00
0:00
edit
Autoscroll
slow
fast
+/-
esc
set tempo
stop
Author
Difficulty
Paramore - Ain't It Fun
Standard Tuning
follow me :) https://twitter.com/dejpelayo


[Intro]

e|-----------------------------------------------------------|
B|-----------------------------------------------------------|
G|4h6---4h6----4h6----4h6---4h6------4h6-6-------------------|
D|----6-----6------6------6-----6----------------------------|
A|-----7-------7-----7-----7------7--------------------------|
E|-----------------------------------------------------------|


[Verse 1]

e|--------------------------------------------------------------------|
B|--------------------------------------------------------------------|
G|----4h6----4h6----4h6---4h6-----------------------------------------|
D|--6-----6------6------6-----6------------------------------|repeat--| 
A|---7------7------7-----7-----7--------------------------------------|
E|--------------------------------------------------------------------|(x4)


[Pre-Chorus]

e|-----------------------------------------------------------|
B|-----------------------------------------------------------|
G|----4h6----4h6----4h6---4h6--------------------------------|
D|--6-----6------6------6-----6------------------------------|
A|---7------7-----7------7-----------------------------------|
E|-----------------------------------------------------------|

e|-------------------------------------------------------------|
B|-------------------------------------------------------------|
G|----4h6----4h6----4h6---4h6-6--------------------------------|
D|--6-----6------6------6--------------------------------------|
A|---7------7------7-------------------------------------------|
E|-------------------------------------------------------------|


[Chorus]

e|----------------------------------------------------------------------------|
B|----------------------------------------------------------------------------|
G|----------------------------------------------------------------------------|
D|--77777777--11111111-(11's)--999999--77777777--1111111-(11's)--999999-------|
A|--77777777--11111111-(11's)--999999--77777777--1111111-(11's)--999999-------|
E|--55555555--999999-----------777777--55555555--999999----------777777-------|


[Verse 2]

e|-----------------------------------------------------------|
B|-----------------------------------------------------------|
G|----4h6----4h6----4h6---4h6--------------------------------|
D|--6-----6------6------6-----6------------------------------|
A|---7------7------7-----7-----7-----------------------------|
E|-----------------------------------------------------------|(x4)


[Pre-Chorus]

e|-------------------------------------------------------------|
B|-------------------------------------------------------------|
G|----4h6----4h6----4h6---4h6----------------------------------|
D|--6-----6------6------6-----6--------------------------------|
A|---7------7------7-----7-------------------------------------|
E|-------------------------------------------------------------|
Add this after that.
e|------------------------------------------------------|
B|------------------------------------------------------|
G|------------------------------------------------------|
D|-------4h6----4h6---4h6----4h6---4h6------------------|
A|----4h6----4h6---4h6----4h6---4h6---------------------|
E|------------------------------------------------------|
........just mess around :D......

e|-------------------------------------------------------------|
B|-------------------------------------------------------------|
G|----4h6----4h6----4h6---4h6-6--------------------------------|
D|--6-----6------6------6--------------------------------------|
A|---7------7-----7--------------------------------------------|
E|-------------------------------------------------------------|

Another Guitar do this
e|-----7-7-7-7-9-7-7-7-7-9-----------------------------------|
B|-----------------------------------------------------------|
G|-----------------------------------------------------------|
D|-----------------------------------------------------------|Repeat
A|-----------------------------------------------------------|
E|-----------------------------------------------------------|


Then Repeat [Chorus]

e|-------------------------------------------------------------------------|
B|-------------------------------------------------------------------------|
G|-------------------------------------------------------------------------|
D|--77777777--1111111-(11's)--999999--77777777--1111111-(11's)--999999-----|
A|--77777777--1111111-(11's)--999999--77777777--1111111-(11's)--999999-----|
E|--55555555--999999----------777777--55555555--999999----------777777-----|

lead guitar plays after ...."living in a real world"....
e|------7-----------7-------------7--------------------------|
B|------------9-----------7--------------5-------------------|
G|-----------------------------------------------------------|
D|-----------------------------------------------------------|
A|-----------------------------------------------------------|
E|-----------------------------------------------------------|

Next
...ain't it good to be on your own ........... (just repeat the chords)
e|-----------------------------------------------------------|
B|-----------------------------------------------------------|
G|-----------------------------------------------------------|
D|------77777777--------------111111111----------------------|
A|------77777777--------------111111111----------------------|
E|------55555555--------------99999999-----------------------|

e|-------------------------------------------------------------------------|
B|-------------------------------------------------------------------------|
G|-------------------------------------------------------------------------|
D|--77777777--1111111-(11's)--999999--77777777--1111111-(11's)--999999-----|
A|--77777777--1111111-(11's)--999999--77777777--1111111-(11's)--999999-----|
E|--55555555--999999----------777777--55555555--999999----------777777-----|


[Bridge]

e|-----------------------------------------------------------|
B|-----------------------------------------------------------|
G|-----------------------------------------------------------|
D|---77777777777777777-------2222222222222222----------------|
A|---77777777777777777-------2222222222222222----------------|
E|---55555555555555555-------0000000000000000----------------|
......................PALM MUTED...............................


CLAP ! CLAP! (YEAH !:D)\m/

then Chorus
After chorus
Then mix the bridge and this.

e|-----7-7-7-7-9-7-7-7-7-9-----------------------------------|
B|-----------------------------------------------------------|
G|-----------------------------------------------------------|
D|-----------------------------------------------------------|Repeat
A|-----------------------------------------------------------|
E|-----------------------------------------------------------|

End. Hope you Like It . If you have any song request. Send it to my gmail.
jp07221@gmail.com (PARAMORE ONLY!!)


************************************

| h  Hammer-on

************************************

            
            
Suggest correction
Creating personal tab
Creating personal tab
You can edit any tab online and save it as your Personal.

You can edit, replace or remove any tab part or add personal notes – all changes will be seen only by you.

Personal tabs can be accessed anytime from any device, even offline.
Learn more »
comments
print report bad tab
6 comments total. Showing first comments.
0 reply
wewwew123 61 Apr 12, 2013 07:36 PM

please rate :D

+1 reply
Sciking 10 May 30, 2013 05:57 AM

Great tab dude !, only one thing in the chorus instead of 997 its 220 :D

+1 reply
McBird182 30 Jun 04, 2013 05:13 AM

Brilliant Tab. Just a note to say the 4-6 on the G is a hammer on.

guest
You may want to rate the tab now too:
select rating
Wanna post a correction for this tab? Suggest correction