Oops, an error
Loading. Please wait.

All We Know tab

version 4
version 4

Whole song

Interactive

8,558 views 6 this week
8 commentsread comments
1 2 3 4 5
x 6
add to favorites
×
Save as Personal and add changes to this tab that will be seen only by you. Learn more ›
×
You can save this tab as Personal to edit and correct it or add notes. All changes will be seen only by you. Learn more »
launch autoscroll
font size
0
reset
how to read this tab
guitar tuner
edit
Autoscroll
slow
fast
+/-
esc
set tempo
stop
Difficulty
I looked at other tabs on here and for the intro and the solo they’ve been wrong, I
the intro, (pre)/chorus and everything else except from the solo which I tried to figure out
it still doesn’t sound quite right so you might need to try and see if you can figure it 
for perfect yourself – sorry about that  but its more accurate than other
for this song on UG.

Please note that I haven’t specified exact strumming patterns on certain parts of this
but it’s really easy to figure out by just listening to the song  play it sort of
too for example in the intro it makes it sound better  Enjoy it

Intro: X2

e|-------------------------------------------------------------------------|
B|-------------------------------------------------------------------------|
G|-----------------------------------------------------5-5555-5-5555-5555--|
D|--2-0-2---77777777------2-0-2---55555555-----2-0-2---5-5555-5-5555-5555--|
A|--2-0-2---55555555------2-0-2---33333333-----2-0-2---3-3333-3-3333-3333--|
D|--2-0-2---55555555------2-0-2---33333333-----2-0-2-----------------------|
              ******                ******

Pre-Chorus: X1  0:24

e|---------------------------------------------------------------------------|
B|---------------------------------------------------------------------------|
G|------------------------------------------------------5-5555-5-5555-5555---|
D|--2-0-2---7777777777----99999----5555555555---2-0-2---5-5555-5-5555-5555---|
A|--2-0-2---5555555555----77777----3333333333---2-0-2---3-3333-3-3333-3333---|
D|--2-0-2---5555555555----77777----3333333333---2-0-2------------------------|
              ********    *****    **********

Chorus: 0:37  x2 Then Chorus Ending
                                                      2nd Chorus Ending
e|-------------------------------------------------|-----------------------|
B|-------------------------------------------------|-----------------------|
G|------------------555555555----------------------|-----------------------|
D|-0-222222222222---555555555----0--7-777-0--5-333-|---22222222222222222---|
A|-0-222222222222---333333333----0--5-555-0--5-333-|---22222222222222222---|
D|-0-000000000000----------------0--5-555-0--5-333-|---00000000000000000---|
                                                       .................
Then intro x2 then pre chorus x1 then chorus x2 then verse then bridge
Chorus Guitar 2:
Note: The numbers below are 11s 12s and 10s!

e|-----------------------------------------------------------------------|
B|-----------------------------------------------------------------------|
G|---999999999999999999-1111111111111111-1212121212121212121212121212----|
D|---xxxxxxxxxxxxxxxxxx-xxxxxxxxxxxxxxxx--x-x-x-x-x-x-x-x-x-x-x-x-x-x----|
A|---777777777777777777-9999999999999999-1010101010101010101010101010----|
D|-----------------------------------------------------------------------|

Verse: X4 then do bridge straight after
e|------5---------7---------3-----------|
B|------5---------7---------3-----------|
G|------7---------9---------5-----------|
D|------7---------9---------5-----------|
A|------5---------7---------3-----------|
D|--------------------------------------|


Bridge: X1  2:20

e|----------------------19----------------------------19-------------------|
B|-------------------------------------------------------------------------|
G|-----------------5-5---------------------------5-5-----------------------|
D|-0000--2222------5-5------0--22222-4444-555----5-5------0--22222-0000----|
A|-0000--2222------3-3------0--22222-4444-555----3-3------0--22222-0000----|
D|-0000--2222---------------0--22222-4444-555-------------0--22222-0000----|
   ****  ****

Solo: 2:35

E------------------------------|
B------------------------------|
G-16161616/14141414/19191919---|
D--x-x-x-x--x-x-x-x--x-x-x-x---|
A-14141414/12121212/17171717---|
D------------------------------|


E---------------------------------------|
B---------------------------------------|
G-99999999/1111111111111111/1212121212--|
D-xxxxxxxx--x-x-x-x-x-x-x-x--x-x-x-x-x--|
A-77777777/-9-9-9-9-9-9-9-9/1010101010--|
D---------------------------------------|


E-19191919------------1515151519191919-------------------------------------|
B---------171717171717----------------151515151515171717171919191920202020-|
G--------------------------------------------------------------------------|
D--------------------------------------------------------------------------|
A--------------------------------------------------------------------------|
D--------------------------------------------------------------------------|


E-----------------|
B-----------------|
G-1616161616161616|
D-----------------|
A-----------------|
D-----------------|


Then Play the Chorus Twice and End on the Last Chord.


comment if u want lol

chris

            
            
Suggest correction
Creating personal tab
Creating personal tab
You can edit any tab online and save it as your Personal.

You can edit, replace or remove any tab part or add personal notes – all changes will be seen only by you.

Personal tabs can be accessed anytime from any device, even offline.
Learn more »
comments
print report bad tab
8 comments total. Showing first comments.
0 reply
ChemyVamp 805 Feb 05, 2008 07:52 AM

Bridge: X1 2:20

e|-----------------------------------------------------------------------|
B|-------------------------------------------------------------------------|
G|-----------------5-5--5*-----------------------5-5--5*-------------------|
D|-0000--2222------5-5------0--22222-4444-555----5-5------0--22222-0000----|
A|-0000--2222------3-3------0--22222-4444-555----3-3------0--22222-0000----|
D|-0000--2222---------------0--22222-4444-555-------------0--22222-0000----|

the 19's on the bridge are pinch harmonics on the fifth fret on the G string

0 reply
doobidoo 6,271 Apr 18, 2008 09:33 PM

btidge-gtr 2
e|----5*----------------5*-------------------5*----------------------------|
b|---------7*-----------------7*------------------7*-----------------------|
g|-------------5*------------------5*------------------5*------------------|
d|-------------------------------------------------------------------------|
a|-------------------------------------------------------------------------|
e|-------------------------------------------------------------------------|

e|-------------------------------------------------------------------------|
B|----------------------------------------------------5*-------------------|
G|-----------------5-5-x5*-----------------------5-5-----------------------|
D|-0000--2222------5-5-x----0--22222-4444-555----5-5------0--22222-0000----|
A|-0000--2222------3-3-x----0--22222-4444-555----3-3------0--22222-0000----|
D|-0000--2222----------x----0--22222-4444-555-------------0--22222-0000----|
****

0 reply
doobidoo 6,271 Apr 18, 2008 09:38 PM

btidge-gtr 2
e|----5*----------------5*-------------------5*----------------------------|
b|---------7*-----------------7*------------------7*-----------------------|
g|-------------5*------------------5*------------------5*------------------|
d|-------------------------------------------------------------------------|
a|-------------------------------------------------------------------------|
e|-------------------------------------------------------------------------|

e|-------------------------------------------------------------------------|
B|----------------------------------------------------5*-------------------|
G|-----------------5-5-x5*-----------------------5-5-----------------------|
D|-0000--2222------5-5-x----0--22222-4444-555----5-5------0--22222-0000----|
A|-0000--2222------3-3-x----0--22222-4444-555----3-3------0--22222-0000----|
D|-0000--2222----------x----0--22222-4444-555-------------0--22222-0000----|
****

guest
Wanna post a correction for this tab? Suggest correction