Oops, an error
Loading. Please wait.
We have an official Careful tab made by UG professional guitarists. Check out the tab »
×
24,025 views 24 this week
2 commentsread comments
1 2 3 4 5
x 8
add to favorites
×
Save as Personal and add changes to this tab that will be seen only by you. Learn more ›
×
You can save this tab as Personal to edit and correct it or add notes. All changes will be seen only by you. Learn more »
launch autoscroll
font size
0
reset
guitar tuner
edit
Autoscroll
slow
fast
+/-
esc
set tempo
stop
-------------------------------------------------------------------------------
			     CAREFUL - Paramore
-------------------------------------------------------------------------------

Tabbed By: Valerie L
e-mail: queefist@yahoo.com
Tuning: C#

Intro
F#|-------------------------------|
C#|-------------------------------|
G#|--------000-2-2---------22-0---|
C#|44-444-4-------44-444-4-----2-2|x2

Verse "I settled down a twisted up frown"
whole thing x2
F#|------------------| |------------------|
C#|------------------| |------------------|
G#|-------------5/9~-| |------------------|
C#|4~----------------| |00000000-22222222-| 

pre-chorus "you make your way in"
F#|------------------------------------------------------------|
C#|------------------------------------------------------------|
G#|--------00000000--------------------------00000000----------|
C#|44444444--------22222222-00000000-44444444--------22222222-0|

chorus "you can't be too careful anymore"
F#|---------------------------------------------------------------------|
C#|---------------------------------------------------------------------|
G#|-----------------00000000-22222222------------------00000000---------|
C#|44444444-00000000-----------------44444444-000000000--------22222222-|

"more, moreeeeee, moreeeeee"
F#|---------4---------4---------------------4---------4--------------|
C#|----2h4p2-----2hp4------------------2h4p2-----2h4p2---------------|
G#|2-2-------2-2---------------0-0~-2-2-------2-2---------------4h5p4|
C#|--------------------4-4-4~---------------------------4-4-0000-----|

intro x1

verse "open your eyes like I opened mine"
F#|------------------| |------------------|
C#|------------------| |------------------|
G#|-------------5/9~-| |------------------|
C#|4~----------------| |00000000-22222222-| 

"shifting your weight to throw off the pain"
F#|6---------6-|     |------------------|
C#|--76-4h6h7--|     |------------------|
G#|------------|     |------------------|
C#|------------| x4  |00000000-22222222-|

pre-chorus "you can't tell me to heal"
F#|--------------------------------------------------------------|
C#|--------------------------------------------------------------|
G#|--------00000000-----------------------------00000000---------|
C#|44444444--------22222222-00000-0-0-0-44444444--------222222220|

chorus "you can't be too careful anymore"
F#|---------------------------------------------------------------------|
C#|---------------------------------------------------------------------|
G#|-----------------00000000-22222222------------------00000000---------|
C#|44444444-00000000-----------------44444444-000000000--------22222222-|

"more, moreeeeee, moreeeeee"
F#|---------4---------4---------------------4---------4----------|
C#|----2h4p2-----2hp4------------------2h4p2-----2h4p2-----------|
G#|2-2-------2-2---------------0-0~-2-2-------2-2----------------|
C#|--------------------4-4-4~---------------------------4-4-0000-|

breakdown
F#|-------------------------|    |---------------------|
C#|-------------------------|    |---------------------|
G#|2-2-2--------0-0-0-------|    |2-2------0-0-0-2-2-2-|
C#|------0--0-0--------2-2-2|x3  |---0-00-0------------|

"the truth never set me free, never set me free.."
F#|----------------------------------|
C#|----------------------------------|
G#|---------000222222-------2222-----|
C#|44444444----------4444444----22222|x2


chorus "you can't be too careful anymore"
F#|---------------------------------------------------------------------|
C#|---------------------------------------------------------------------|
G#|-----------------00000000-22222222------------------00000000---------|
C#|44444444-00000000-----------------44444444-000000000--------22222222-|x2

"more, moreeeeee, moreeeeee"
F#|-----------------------------|   |---------------------------------|
C#|-----------------------------|   |---------------------------------|
G#|2--2-2--2--2-2--------0--0-0-|   |2--2-2--2--2-2-------------4h5p4-|
C#|---------------4--4-4--------|   |---------------4--4-4-0000-------|

Outro
F#|------------------------------------|
C#|------------------------------------|
G#|---------000-2-2---------220--------|
C#|44-4-44-4--------44444444---2-2--4~-|

| /  slide up
| \  slide down
| h  hammer-on
| p  pull-off
| ~  vibrato
| +  harmonic
| x  Mute note
===============================================================================


            
            
Suggest correction
Creating personal tab
Creating personal tab
You can edit any tab online and save it as your Personal.

You can edit, replace or remove any tab part or add personal notes – all changes will be seen only by you.

Personal tabs can be accessed anytime from any device, even offline.
Learn more »
comments
print report bad tab
2 comments total.
+1 reply
AlexD97 579 Jun 15, 2010 05:26 AM

:yes:

I have nothing else to say.

+1 reply
Wise Fools 72 May 18, 2011 02:37 PM

Spot on. Nice job.

guest
You may want to rate the tab now too:
select rating
Wanna post a correction for this tab? Suggest correction