Oops, an error
Loading. Please wait.
We have an official Crushcrushcrush tab made by UG professional guitarists. Check out the tab »
×
104,954 views 57 this week
15 commentsread comments
1 2 3 4 5
x 46
add to favorites
×
Save as Personal and add changes to this tab that will be seen only by you. Learn more ›
×
You can save this tab as Personal to edit and correct it or add notes. All changes will be seen only by you. Learn more »
launch autoscroll
font size
0
reset
guitar tuner
edit
Autoscroll
slow
fast
+/-
esc
set tempo
stop
Author
Difficulty
Unregistered
OMG i love this song!!! hope you enjoy my tab...! Im playing this song for a
talent show
i tried to make it as close to the real thing as possible

[Intro]
G|-------------|
D|-------------|
A|-2-2-2-------|
E|-------------|

[Verse]
G|----------------------------------------------------------------|
D|---------------2-2-2-2-2-2-2-2----------------------------------|
A|4-4-4-4-4-4-4-4---------------2-2-2-2-2-2-2-2-4-4-4-4-4-2---2---|
E|----------------------------------------------------------4-----|

[Verse] (repeated)
G|---------------------------------------------------------------------|
D|---------------2-2-2-2-2-2-2-2---------------------------------------|
A|4-4-4-4-4-4-4-4---------------2-2-2-2-2-2-2-2-2-2-2-2-2-2-2-2-2------|
E|---------------------------------------------------------------------|

[Verse 2]
G|----------------------------------------------------------------------------------------|
D|----------------------------------------------------------------------------------------|
A|--------4~--4-6-7-6-4-------------------------------------------------------------------|
E|5~--7~----------------7---5-5-5-5-7-7-7-7-9-9-9-9-7-9-9-7-9-9-9-9-7--5-5-5-5-5-4-4-4-4-4|

[Pre-Chorus] "Crush..."
G|---------------|
D|---------------|
A|-4~----4~------|
E|---------------|

[Chorus]
G|--------------------------------------------------------------|
D|--------------------------------------------------------------|
A|-4-4-7-7---------4-4---4-4-7-7--------------------------------|
E|---------7---5-5-----7---------7~--5-5-5-5-5-5-5-5-7-7-7-7-7--|

[Pre-verse]
G|------------------------------------|
D|------------------------------------|
A|-4-4-4-2-2-2-2-2-4-4-4-2-2-2--4-4-4-|
E|------------------------------------|

[Verse]
G|----------------------------------------------------------------|
D|---------------2-2-2-2-2-2-2-2----------------------------------|
A|4-4-4-4-4-4-4-4---------------2-2-2-2-2-2-2-2-4-4-4-4-4-2---2---|
E|----------------------------------------------------------4-----|

[Verse] (repeated)
G|---------------------------------------------------------------------|
D|---------------2-2-2-2-2-2-2-2---------------------------------------|
A|4-4-4-4-4-4-4-4---------------2-2-2-2-2-2-2-2-2-2-2-2-2-2-2-2-2------|
E|---------------------------------------------------------------------|

[Verse 2]
G|----------------------------------------------------------------------------------------|
D|----------------------------------------------------------------------------------------|
A|--------4~--4-6-7-6-4-------------------------------------------------------------------|
E|5~--7~----------------7---5-5-5-5-7-7-7-7-9-9-9-9-7-9-9-7-9-9-9-9-7--5-5-5-5-5-4-4-4-4-4|

[Pre-Chorus] "Crush..."
G|---------------|
D|---------------|
A|-4~----4~------|
E|---------------|

[Chorus]
G|--------------------------------------------------------------|
D|--------------------------------------------------------------|
A|-4-4-7-7---------4-4---4-4-7-7--------------------------------|
E|---------7---5-5-----7---------7~--5-5-5-5-5-5-5-5-7-7-7-7-7--|

[Bridge] "rock and roll."
G|-----------------|
D|-----------------|
A|-4--7------------|
E|------7--5-5--5--| x4

G|-------------------------------------------------------------------------------------------------|
D|-------------------------------------------------------------------------------------------------|
A|-------------------------------------------------------4-4-7-7-----------------------------------|
E|999-0-0-0-7-7-7-7-7-7-7-7-5-5-5-0-0-0-7-7-7-7-8-8-8-8----------7~--5-5-5-5-5-5-5-5-7-7-7-7-7-7-7-|
  easier

[Chorus]
G|--------------------------------------------------------------|
D|--------------------------------------------------------------|
A|-4-4-7-7---------4-4---4-4-7-7--------------------------------|
E|---------7---5-5-----7---------7~--5-5-5-5-5-5-5-5-7-7-7-7-7--|

[Outro]
G|--------------------------------------------------------------------------------------------------|
D|--------------------------------------------------------------------------------------------------|
A|--------------------------------------------------------------------------------------------------|
E|9-9-9-9-9-9-9-9--8-8-8-8-8-8-8-8-7-7-7-7-7-7-9-7-6-6-6-6-6-6-6-6-5-5-5-5-5-5-5-5-7-7-7-7-7-7-7-7-9|


************************************

| ~  Vibrato

************************************

            
            
Suggest correction
Creating personal tab
Creating personal tab
You can edit any tab online and save it as your Personal.

You can edit, replace or remove any tab part or add personal notes – all changes will be seen only by you.

Personal tabs can be accessed anytime from any device, even offline.
Learn more »
comments
print report bad tab
15 comments total. Showing first comments.
0 reply
jakstar 10 Dec 03, 2007 01:35 PM

very good tab, 5 stars

0 reply
blacksheepbass 10 Dec 04, 2007 03:34 PM

i must be reading it wrong u should get your sequencing more clear try matching up each part with the lyrics the riff
starts with. what i understand sounds mostly right besides i tihnk u got the 5th note in the chorus wrong

-2 reply
rylock4 50 Dec 11, 2007 09:08 AM

4.5 stars you do the chorus twice before the outro

guest
Wanna post a correction for this tab? Suggest correction