Oops, an error
Loading. Please wait.
We have an official Crushcrushcrush tab made by UG professional guitarists. Check out the tab »
×
7,834 views 1 this week
1 commentread comment
1 2 3 4 5
x 6
add to favorites
×
Save as Personal and add changes to this tab that will be seen only by you. Learn more ›
×
You can save this tab as Personal to edit and correct it or add notes. All changes will be seen only by you. Learn more »
launch autoscroll
font size
0
reset
guitar tuner
edit
Autoscroll
slow
fast
+/-
esc
set tempo
stop
In this song you have to tune your E string down to a C!!



INTRO/VERSE
G|------------------------------------------------------------------------|
D|------------------------------------------------------------------------|
A|333-44444444-----------22222222-44444-2-0-2-44444444----------2222222222|
C|--------------33333333-------------------------------33333333-----------|

This part has to be palm muted in with the rhythem when hayley sings "They taped over..."
G|-----------------------------------------------------------------------|
D|-----------------------------------------------------------------------|
A|-0-0-000-2-2-222-4-444-444-6-7-6-4-2-0-0-000-2-2-222-4-444-444-2-4-2-4-|
C|-----------------------------------------------------------------------|

straight after you do this... (remember to slide up and also palm mute this!!)
G|---------------------------------------|
D|---------------------------------------|
A|00-00-0--------------------------------|
C|--------77-77-7\-----------------------|

CHORUS
When Hayley sings "Crush...Crush..."
G|-----------------------------------------------------------------------|
D|-----------------------------------------------------------------------|
A|------------------2-222222-00----2-222222-------2-22222-00000000-22222~|
C|0~----0~----00-33-------------00----------00-33------------------------|

This is straight after the last bit
G|-----------------------------|
D|-----------------------------|
A|4444-2222-2-2-4444-222222-333|
C|-----------------------------|

then you go straight back into the verse it all continues all together.
G|-------------------------------------------------------------------|
D|-------------------------------------------------------------------|
A|44444444----------22222222-44444-2-0-2-44444444----------2222222222|
C|---------33333333-------------------------------33333333-----------|

Then straight into this one again (remember to palm mute!)
G|-----------------------------------------------------------------------|
D|-----------------------------------------------------------------------|
A|-0-0-000-2-2-222-4-444-444-6-7-6-4-2-0-0-000-2-2-222-4-444-444-2-4-2-4-|
C|-----------------------------------------------------------------------|

Then straight into this... (remember to palm mute and slide up!)
G|---------------------------------------|
D|---------------------------------------|
A|00-00-0--------------------------------|
C|--------77-77-7\-----------------------|

Then straight after that go straight into this...
G|-----------------------------------------------------------------------|
D|-----------------------------------------------------------------------|
A|------------------2-222222-00----2-222222-------2-22222-00000000-22222~|
C|0~----0~----00-33-------------00----------00-33------------------------|

pause...

This part is the Bridge when hayley sings "rock and roll..."
G|----------------------------------|
D|----------------------------------|
A|-12\-----22-000-----22-000-----22-|
C|-----0-3-------0-3---------0-3----|

Last chorus...
G|----------------------------------------------------------------------|
D|----------------------------------------------------------------------|x2
A|--------2222222222-000-----2222222222-------2-222222-00000000-22222222|x2
C|000-333----------------000------------00-33---------------------------|
  

Outro
G|--------------------------------------------------|
D|--------------------------------------------------|
A|4444444-3333333-2222222-1111111-0000000-2222222-4\|
C|--------------------------------------------------|

            
            
Suggest correction
Creating personal tab
Creating personal tab
You can edit any tab online and save it as your Personal.

You can edit, replace or remove any tab part or add personal notes – all changes will be seen only by you.

Personal tabs can be accessed anytime from any device, even offline.
Learn more »
comments
print report bad tab
1 comment total.
0 reply
rubberduck22222 142 Jul 31, 2009 10:47 AM

Sorry but i forgot to mention this. I do not actually own this tab as someone had shown me this person teaching how to play this song and so i thought i would tab it out for others to learn. so i don't own this tab.

guest
You may want to rate the tab now too:
select rating
Wanna post a correction for this tab? Suggest correction