Oops, an error
Loading. Please wait.
We have an official Decode tab made by UG professional guitarists. Check out the tab »
×

Decode bass

version 1
version 1

Whole song

170,044 views 129 this week
2 commentsread comments
1 2 3 4 5
x 22
add to favorites
×
Save as Personal and add changes to this tab that will be seen only by you. Learn more ›
×
You can save this tab as Personal to edit and correct it or add notes. All changes will be seen only by you. Learn more »
launch autoscroll
font size
0
reset
guitar tuner
backing track
0:00
0:00
edit
Autoscroll
slow
fast
+/-
esc
set tempo
stop
=================
Paramore - Decode
=================

Drop D

[Verse]

|-----------------------------|
|-----------------------------|
|-----------------------------|
|-4(x16)-1(x16)-8(x16)-3(x16)-|


[Pre-Chorus]

|---------------------|
|---------------------|
|---------------------|
|-4~--1~--8~--3(x16)--|

Chorus: (These are 1's not 11's)
|-------------------------------------|
|-------------------------------------|
|-----------33-4-4--------------------|
|-444444444--------4-1111111111111111-|

|-----------------------------------|
|-----------------------------------|
|-----------------------------------|
|-8888888888888888-3333333333333333-|

|-------------------------------------|
|-------------------------------------|
|-----------33-4-4--------------------|
|-444444444--------4-1111111111111111-|

|-----------------------------------------|
|-----------------------------------------|
|-----------------------------------------|
|-8888888888888888-3333333333333-silence~-|


[Post-Chorus]

|----------------------|
|----------------------|
|----------------------|
|-8~---11/6~-------1-3-|


[Verse]

|-----------------------------|
|-----------------------------|
|-----------------------------|
|-4(x16)-1(x16)-8(x16)-3(x16)-|


[Pre-Chorus]

|---------------------|
|---------------------|
|---------------------|
|-4~--1~--8~--3(x16)--|

Chorus: Play this twice
(These are 1's not 11's)
|-------------------------------------|
|-------------------------------------|
|-----------33-4-4--------------------|
|-444444444--------4-1111111111111111-|

|-----------------------------------|
|-----------------------------------|
|-----------------------------------|
|-8888888888888888-3333333333333333-|



Solo: Play this twice
These are 1's not 11's
|---------------------------------|
|---------------------------------|
|---------------------------------|
|-44-444-444-44-4-11-111-111-11-1-|

|---------------------------------|
|---------------------------------|
|---------------------------------|
|-88-888-888-88-8-33-333-333-33-3-|


[Bridge]

|------------------------|
|------------------------|
|------------------------|
|-4~----1~----8~----3----|

|-------------------------|
|-------------------------|
|-------------------------|
|-4~--11/1~----8~----3----|

Last Chorus: Play this three times
|-------------------------------------|
|-------------------------------------|
|-----------33-4-4--------------------|
|-444444444--------4-1111111111111111-|

|-----------------------------------|
|-----------------------------------|
|-----------------------------------|
|-8888888888888888-3333333333333333-|

in the third time the last part is

|-----------------------------------|
|-----------------------------------|
|-----------------------------------|
|-8888888888888888-3333333333333/0--|


[Outro]

|-----------------------|
|-----------------------|
|-----------------------| x4
|-4--6--1--8-3-4-8-3--6-|

on the forth time don't play the G# note
then

|--------|
|--------|
|--------|
|-1-1-1~-|



************************************

| /  Slide up
| ~  Vibrato

************************************

            
            
Suggest correction
Creating personal tab
Creating personal tab
You can edit any tab online and save it as your Personal.

You can edit, replace or remove any tab part or add personal notes – all changes will be seen only by you.

Personal tabs can be accessed anytime from any device, even offline.
Learn more »
comments
print report bad tab
2 comments total. show 1 bad comment
0 reply
Chaz1308 20 Jan 20, 2009 03:44 AM

Oh-Dear-Load:
I disagree with you on the Outro.
I hear this:

|-----------------------|
|-----------------------|
|-----------------------| x4
|-4--6--1--8-3-4-6-3---6|

The 6 is played, but at the very end of the bar, right before the 4, so it almost sounds like 6--4--6 at the beginning of the next bar.

Also, On the solo, I make it out to be:

|---------------------------------|
|---------------------------------|
|---------------------------------|
|-4--44--4--44---1--11--1--11-----|

|---------------------------------|
|---------------------------------|
|---------------------------------|
|-8--88--8--88------3----3----3---|

However, this is only minor things that I've changed from your version! You did a great job :)

Thanks for tabbing it!!

guest
You may want to rate the tab now too:
select rating
Wanna post a correction for this tab? Suggest correction