Oops, an error
Loading. Please wait.
We have an official Decode tab made by UG professional guitarists. Check out the tab »
×

Decode bass

version 4
version 4

Whole song

21,474 views 15 this week
no commentswrite comment
1 2 3 4 5
x 4
add to favorites
×
Save as Personal and add changes to this tab that will be seen only by you. Learn more ›
×
You can save this tab as Personal to edit and correct it or add notes. All changes will be seen only by you. Learn more »
launch autoscroll
font size
0
reset
guitar tuner
backing track
0:00
0:00
edit
Autoscroll
slow
fast
+/-
esc
set tempo
stop
Author
Paramore: Decode
Bassist: Jeremy Davis
Year: 2008
Album: Twilight Soundtrack (not on an offical Paramore Album)

Okay, So the song is played in drop d.
But it sounds the same to me if you just play it on the D chord.
So here are the tabs for Decode in Standard Tuning.

Verse
|-----------------------------|
|-4(x16)-1(x16)-8(x16)-3(x16)-|
|-----------------------------|
|-----------------------------|


Pre-Chorus
|---------------------|
|-4~--1~--8~--3(x16)--|
|---------------------|
|---------------------|

Chorus: (These are 1's not 11's)
|-------------------------------------|
|-444444444--------4-1111111111111111-|
|-----------33-4-4--------------------|
|-------------------------------------|

|-----------------------------------|
|-8888888888888888-3333333333333333-|
|-----------------------------------|
|-----------------------------------|


|-------------------------------------|
|-444444444--------4-1111111111111111-|
|-----------33-4-4--------------------|
|-------------------------------------|

|-----------------------------------------|
|-8888888888888888-3333333333333-silence~-|
|-----------------------------------------|
|-----------------------------------------|


Post-Chorus:
|----------------------|
|-8~---11/6~-------1-3-|
|----------------------|
|----------------------|


Verse
|-----------------------------|
|-4(x16)-1(x16)-8(x16)-3(x16)-|
|-----------------------------|
|-----------------------------|


Pre-Chorus
|---------------------|
|-4~--1~--8~--3(x16)--|
|---------------------|
|---------------------|


Chorus: x2
1's not 11's
|-------------------------------------|
|-444444444--------4-1111111111111111-|
|-----------33-4-4--------------------|
|-------------------------------------|

|-------------------------------------|
|-8888888888888888-3333333333333333---|
|-------------------------------------|
|-------------------------------------|




Solo: x2
1's not 11's
|---------------------------------|
|-44-444-444-44-4-11-111-111-11-1-|
|---------------------------------|
|---------------------------------|

|---------------------------------|
|-88-888-888-88-8-33-333-333-33-3-|
|---------------------------------|
|---------------------------------|


Bridge:
|-------------------------|
|-4~-----1~----8~----3----|
|-------------------------|
|-------------------------|


|-------------------------|
|-4~-----1~----8~----3----|
|-------------------------|
|-------------------------|


Last Chorus: Play this three times
|-------------------------------------|
|-444444444--------4-1111111111111111-|
|-----------33-4-4--------------------|
|-------------------------------------|

|-----------------------------------|
|-8888888888888888-3333333333333333-|
|-----------------------------------|
|-----------------------------------|



Outro:
|-----------------------|
|-4--6--1--8-4-6-1------|
|-----------------------|
|-----------------------| x4

|--------|
|-1-1-1~-|
|--------|
|--------|

            
            
Suggest correction
Creating personal tab
Creating personal tab
You can edit any tab online and save it as your Personal.

You can edit, replace or remove any tab part or add personal notes – all changes will be seen only by you.

Personal tabs can be accessed anytime from any device, even offline.
Learn more »
comments
print report bad tab
guest
You may want to rate the tab now too:
select rating
Wanna post a correction for this tab? Suggest correction