Oops, an error
Loading. Please wait.
We have an official Decoy tab made by UG professional guitarists. Check out the tab »
×
4,116 views 1 this week
1 commentread comment
1 2 3 4 5
x 3
add to favorites
×
Save as Personal and add changes to this tab that will be seen only by you. Learn more ›
×
You can save this tab as Personal to edit and correct it or add notes. All changes will be seen only by you. Learn more »
launch autoscroll
font size
0
reset
guitar tuner
edit
Autoscroll
slow
fast
+/-
esc
set tempo
stop
Author
Just need to drop the E-string to E-flat and your away!
The tab says E simply because i cant be bothered to put flat after each E!!! 
So play the tab exactly but with E string in E-flat okay?! =D


Intro:
Guitar only until 0:07
Bass comes in when guitar riff starts over

G|---------------------------|
D|---------------------------|
A|-----111---------111-------|
E|--4-----222---444---222----|  x2


Verse:
G|----------------------------|
D|----------------------------|
A|--1--\6--6------------------|
E|-------------------2--44--0-| x4


Pre-chorus:
(ohhh oh oh)
G|---------------------|
D|---------------------|
A|--1------------------|
E|----0-----2--4--0----|


Chorus:
G|-----------------------------------------------------------------------|
D|-----------------------------------------------------------------------|
A|-----------------------------------------------------------------------|
E|--44444444444444440000000022222201244444444444444440000000022222222----|


Post-Chorus:
G|---------------------------|
D|---------------------------|
A|-----111---------111-------|
E|--4-----222---444---222----|  x2


Verse:
G|----------------------------|
D|----------------------------|
A|--1--\6--6------------------|
E|-------------------2--44--0-| x4


Pre-chorus:
(ohhh oh oh)
G|---------------------|
D|---------------------|
A|--1------------------|
E|----0-----2--4--0----|


Chorus:
G|-----------------------------------------------------------------------|
D|-----------------------------------------------------------------------|
A|-----------------------------------------------------------------------|
E|--44444444444444440000000022222201244444444444444440000000022222222----|


Bridge:
G|-----------------------------------------------------------------------|
D|-----------------------------------------------------------------------|
A|--3---------------3---------------3------------------------------------|
E|------0---4---2-------0---4---2-------0---4---2*-----------------------|


Guitar and drums for a bit and bass slides in on third bar

G|---------------------------|
D|---------------------------|
A|-----111----------111------|
E|-14/4----222---444----222--|

Outro:
G|---------------------------|
D|---------------------------|
A|-----111---------111-------|
E|--4-----222---444---222*---|  x3

*let note ring

Thats it i think, listen to the song for timing, im not that
good at putting notes together so you'll have to give it a listen to get each note right!


            
            
Suggest correction
Creating personal tab
Creating personal tab
You can edit any tab online and save it as your Personal.

You can edit, replace or remove any tab part or add personal notes – all changes will be seen only by you.

Personal tabs can be accessed anytime from any device, even offline.
Learn more »
Give kudos to tab author, rate the tab!
1 2 3 4 5
comments
print report bad tab
1 comment total.
0 reply
chr15t0ph3r 40 Aug 07, 2010 07:43 AM

wtf, I'm supposed to tune my string in E flat? No sense.

guest
You may want to rate the tab now too:
select rating
Wanna post a correction for this tab? Suggest correction