Oops, an error
Loading. Please wait.
We have an official For A Pessimist Im Pretty Optimistic tab made by UG professional guitarists. Check out the tab »
×
63,665 views 6 this week
10 commentsread comments
1 2 3 4 5
x 22
add to favorites
×
Save as Personal and add changes to this tab that will be seen only by you. Learn more ›
×
You can save this tab as Personal to edit and correct it or add notes. All changes will be seen only by you. Learn more »
launch autoscroll
font size
0
reset
how to read this tab
guitar tuner
backing track
0:00
0:00
edit
Autoscroll
slow
fast
+/-
esc
set tempo
stop
PLS LIKE OUR BAND FAN PAGE @ FACEBOOK - https://www.facebook.com/SinceAstrid

Tabbed By Francis Twister
From Paramore Philippines(PARAWHORE)



note- tab1 -eb tuning /drop C#
      tab2- standard /drop d


tab #1


Guitar 1 - { eb bb gb db Ab Db )

Guitar 2 - { eb bb gb db Ab Db )


Intro 2x

Guitar1
|------------------------------------------|
|------------------------------------------|
|--555555----------------------------------|
|--555555---555555---222222---000000-------|
|--333333---555555---222222---000000-------|
|-----------555555---222222---000000-------|

|--------------------------------|
|--------------------------------|
|--555555------------------------|
|--555555---555555---000000000---|
|--333333---555555---000000000---|
|-----------555555---000000000---|

Guitar2
|-------------------------------|-------------------------|
|-------------------------------|-------------------------|
|--13-13/16-16-16-16------------|--12-12-/11-11-11-11-----|
|--x--x--x--x--x--x-------------|--x---x--x--x--x---x-----|
|--15-15/14-14-14-14------------|--10-10-/9--9--9---9-----|
|-------------------------------|-------------------------|

|----------------------|-----------------------|
|----------------------|-----------------------|
|--13-13/16-16-16-16---|--19-19-19-19-19-19----|
|--x--x--x--x--x--x----|--x--x--x--x--x--x-----|
|--15-15/14-14-14-14---|--17-17-17-17-17-17----|
|----------------------|-----------------------|

Verse-
G1
|--------------|------------------|
|--------------|------------------|
|--------------|--5555555555555---|
|---5~---------|--5555555555555---|
|---5~---------|--3333333333333---|
|---5~---------|------------------|

|--------------|------------------|
|--------------|------------------|
|--------------|--5555555555555---|
|---5~---------|--5555555555555---|
|---5~---------|--3333333333333---|
|---5~---------|------------------|

Verse2

Guitar1
|--------------------------------|-----|---------------|--------|
|--------------------------------|-----|---------------|--------|
|--------------------------------|-----|---------------|--------|
|-55-555-555-555-577-777-777-777-|-2-2-|---------------|--0~-0~-|
|-55-555-555-555-577-777-777-777-|-2-2-|---------------|--0~-0~-|
|-55-555-555-555-577-777-777-777-|-2-2-|---------------|--0~-0~-|
Guitar2
|--------------------------------|-----|---------------|--------|
|--------------------------------|-----|-5555/88888888-|--------|
|-77-777-777-777-799-999-999-999-|-4-4-|-4444/7777777--|--2~-2~-|
|-55-555-555-555-577-777-777-777-|-2-2-|---------------|--0~-0~-|
|-55-555-555-555-577-777-777-777-|-2-2-|---------------|--0~-0~-|
|-55-555-555-555-577-777-777-777-|-2-2-|---------------|--0~-0~-|


Refrain-
Not sure if this part
GtrI
|--------------|
|--------------|
|--------------|
|-7--9--10--12-|2x
|-7--9--10--12-|
|-7--9--10--12-|
Guitar2
1.
|------12*-|
|---12*----|
|----------|
|----------|
|----------|
|----------|

|-----7*---|
|--7*------|
|----------|w/ harmonics
|----------|
|----------|
|----------|
Chorus-

Guitar1

|-----------------|------------------------|
|-----------------|------------------------|
|-555-------------|-555--------------------|
|-555-0000-222222-|-555-0000-777777--------|
|-333-0000-222222-|-333-0000-777777--------|
|-----0000-222222-|-----0000-777777--------|

|-----------------|------------------------|
|-----------------|------------------------|
|-555-------------|-555--------------------|
|-555-0000-222222-|-555-0000-555555--0-0-0-|
|-333-0000-222222-|-333-0000-555555--0-0-0-|
|-----0000-222222-|-----0000-555555--0-0-0-|


Guitar2
|-----------------------------------------|-------------------------------|
|-----------------------------------------|-------------------------------|
|-999-11-11-11-11-11-12-12-12-12-12-12----|---999--12121212-141414141414--|
|-xxx-x--x--x--x--x---x--x--x--x--x-x-----|---xxx--x-x-x-x--x-x-x-x-x-x---|
|-777-9--9--9--9--9--10-10-10-10-10-10----|---777--10101010-121212121212--|
|-----------------------------------------|-------------------------------|

|----------------------------------------|----------------------------------|-------|
|----------------------------------------|----------------------------------|-------|
|-999-11-11-11-11-11-12-12-12-12-12-12---|---999-12121212-12-12-12-12-12-12-|-7-7-7-|
|-xxx-x--x--x--x--x---x--x--x--x--x-x----|---xxx-x-x-x-x--x--x---x--x-x--x--|-x-x-x-|
|-777-9--9--9--9--9--10-10-10-10-10-10---|---777-9-9-9-9--10-10-10-10-10-10-|-5-5-5-|
|----------------------------------------|----------------------------------|-------|
Continued..

Guitar1

|------------------------------------------|
|------------------------------------------|
|--555555----------------------------------|
|--555555---555555---222222---000000-------|
|--333333---555555---222222---000000-------|
|-----------555555---222222---000000-------|

|--------------------------------|
|--------------------------------|
|--555555------------------------|
|--555555---555555---000000000---|
|--333333---555555---000000000---|
|-----------555555---000000000---|

Guitar2
|-------------------------------|-------------------------|
|-------------------------------|-------------------------|
|--13-13/16-16-16-16------------|--12-12-/11-11-11-11-----|
|--x--x--x--x--x--x-------------|--x---x--x--x--x---x-----|
|--15-15/14-14-14-14------------|--10-10-/9--9--9---9-----|
|-------------------------------|-------------------------|

|----------------------|-----------------------|
|----------------------|-----------------------|
|--13-13/16-16-16-16---|--19-19-19-19-19-19----|
|--x--x--x--x--x--x----|--x--x--x--x--x--x-----|
|--15-15/14-14-14-14---|--17-17-17-17-17-17----|
|----------------------|-----------------------|

Repeat verse 1&2,refrain,chorus


Bridge-P.M.
Guitar1

|---------------------------------------------|
|---------------------------------------------|
|---------------------------------------------|
|-22222222-4444-5555-10101010-9999-7777-44444-|
|-22222222-4444-5555-10101010-9999-7777-44444-|
|-22222222-4444-5555-10101010-9999-7777-44444-|

|----------------------------------------------|
|----------------------------------------------|
|----------------------------------------------|
|-2222-4444-5555-7777-10101010-9999-7777-4444--|
|-2222-4444-5555-7777-10101010-9999-7777-4444--|
|-2222-4444-5555-7777-10101010-9999-7777-4444--|

Continued-



Guitar1

|-----------------------------------------------------|   |------|
|------------------------10-----13-----12------9------|   |------|
|---9-----11-----12-----------------------------------|2x |------|
|-----------------------------------------------------|   |--5~--|
|-----------------------------------------------------|   |--5~--|
|-----------------------------------------------------|   |--5~--|


Guitar2
|----------------------------------|---------------------------------|
|-12-----12-----12-----12-----12---|-8----8-----8--------------------| 
|---12-9---12-9---12-9---12-9------|---5----7-5----5-4-2-4-2~--------|
|----------------------------------|---------------------------------| 
|----------------------------------|---------------------------------|
|----------------------------------|---------------------------------|


|----------------------------------|---------------------------------|
|-12-----12-----12-----12-----12---|-8----8------8-------------------| 
|---12-9---12-9---12-9---12-9------|---7-5----7-5----5-4-2-4-2---4~--|
|----------------------------------|---------------------------------| 
|----------------------------------|---------------------------------|
|----------------------------------|---------------------------------|





Outro-

Guitar1
|------------------------------------------|
|------------------------------------------|
|--555555----------------------------------|
|--555555---555555---222222---000000-------|
|--333333---555555---222222---000000-------|
|-----------555555---222222---000000-------|

|--------------------------------|
|--------------------------------|
|--555555------------------------|
|--555555---555555---000000000---|
|--333333---555555---000000000---|
|-----------555555---000000000---|

Guitar2
|-------------------------------|-------------------------|
|-------------------------------|-------------------------|
|--13-13/16-16-16-16------------|--12-12-/11-11-11-11-----|
|--x--x--x--x--x--x-------------|--x---x--x--x--x---x-----|
|--15-15/14-14-14-14------------|--10-10-/9--9--9---9-----|
|-------------------------------|-------------------------|

|----------------------|-----------------------|
|----------------------|-----------------------|
|--13-13/16-16-16-16---|--19-19-19-19-19-19----|
|--x--x--x--x--x--x----|--x--x--x--x--x--x-----|
|--15-15/14-14-14-14---|--17-17-17-17-17-17----|
|----------------------|-----------------------|

Continued...

Guitar1

|-----------------|------------------|
|-----------------|------------------|
|-555-------------|-555--------------|
|-555-0000-222222-|-555-0000-555555--|
|-333-0000-222222-|-333-0000-555555--|
|-----0000-222222-|-----0000-555555--|


|-----------------|------------------------|
|-----------------|------------------------|
|-555-------------|-555--------------------|
|-555-0000-222222-|-555-0000-777777--------|
|-333-0000-222222-|-333-0000-777777--------|
|-----0000-222222-|-----0000-777777--------|


|-----------------|------------------|
|-----------------|------------------|
|-555-------------|-555--------------|
|-555-0000-222222-|-555-0000-555555--|
|-333-0000-222222-|-333-0000-555555--|
|-----0000-222222-|-----0000-555555--|



Guitar2



|----------------------------------------|----------------------------------|
|----------------------------------------|----------------------------------|
|-999-11-11-11-11-11-12-12-12-12-12-12---|---999-12121212-12-12-12-12-12-12-|
|-xxx-x--x--x--x--x---x--x--x--x--x-x----|---xxx-x-x-x-x--x--x---x--x-x--x--|
|-777-9--9--9--9--9--10-10-10-10-10-10---|---777-9-9-9-9--10-10-10-10-10-10-|
|----------------------------------------|----------------------------------|

|-----------------------------------------|-------------------------------|
|-----------------------------------------|-------------------------------|
|-999-11-11-11-11-11-12-12-12-12-12-12----|---888--12121212-141414141414--|
|-xxx-x--x--x--x--x---x--x--x--x--x-x-----|---xxx--x-x-x-x--x-x-x-x-x-x---|
|-777-9--9--9--9--9--10-10-10-10-10-10----|---777--10101010-121212121212--|
|-----------------------------------------|-------------------------------|

|----------------------------------------|----------------------------------|
|----------------------------------------|----------------------------------|
|-999-11-11-11-11-11-12-12-12-12-12-12---|---999-12121212-12-12-12-12-12-12-|
|-xxx-x--x--x--x--x---x--x--x--x--x-x----|---xxx-x-x-x-x--x--x---x--x-x--x--|
|-777-9--9--9--9--9--10-10-10-10-10-10---|---777-9-9-9-9--10-10-10-10-10-10-|
|----------------------------------------|----------------------------------|
Continued..



End

G1
|----------|------------|
|----------|------------|
|----------|------------|
|---2~-----|----4~------|
|---2~-----|----4~------|
|---2~-----|----4~------|

G2
|----------|------------|
|----------|------------|
|---9~-----|---11~------|
|---x------|---x--------|
|---7~-----|---9~-------|
|----------|------------|

-----------------------------------------------------------------------------
-----------------------------------------------------------------------------

tab #2

Guitar 1 - { e b g d A D )

Guitar 2 - { e b g d A D )


Intro 2x

Guitar1
|------------------------------------------|
|------------------------------------------|
|--444444---------------------666666-------|
|--444444---444444---111111---666666-------|
|--222222---444444---111111---444444-------|
|-----------444444---111111----------------|

|--------------------------------|
|--------------------------------|
|--444444------------666666666---|
|--444444---444444---666666666---|
|--222222---444444---444444444---|
|-----------444444---------------|

Guitar2
|------------------|---------------------|
|------------------|---------------------|
|--12-12/15151515--|--1111/10101010------|
|--x--x---x-x-x-x--|--x-x--x-x-x-x-------|
|--14-14/13131313--|--9-9-/8-8-8-8-------|
|------------------|---------------------|

|------------------|---------------------|
|------------------|---------------------|
|--12-12/15151515--|--181818181818-------|
|--x---x-x-x-x-x---|--x-x-x-x-x-x--------|
|--14-14/13131313--|--161616161616-------|
|------------------|---------------------|

Verse-
G1
|--------------|------------------|
|--------------|------------------|
|--------------|--4444444444444---|
|---4~---------|--4444444444444---|
|---4~---------|--2222222222222---|
|---4~---------|------------------|

G2
|--------------|------------------|
|--------------|------------------|
|--------------|--4444444444444---|
|--------------|--4444444444444---|
|--------------|--2222222222222---|
|--------------|------------------|


Verse2

Guitar1
|--------------------------------|-----|---------------|--------|
|--------------------------------|-----|---------------|--------|
|--------------------------------|-----|---------------|--6--6--|
|-44-444-444-444-466-666-666-666-|-1-1-|---------------|--6--6--|
|-44-444-444-444-466-666-666-666-|-1-1-|---------------|--4--4--|
|-44-444-444-444-466-666-666-666-|-1-1-|---------------|--------|
Guitar2
|--------------------------------|-----|---------------|--------|
|--------------------------------|-----|---------------|--------|
|--------------------------------|-----|-8888/10101010-|--6--6--|
|-44-444-444-444-466-666-666-666-|-1-1-|-8888/10101010-|--6--6--|
|-44-444-444-444-466-666-666-666-|-1-1-|-6666/9-9-9-9--|--4--4--|
|-44-444-444-444-466-666-666-666-|-1-1-|---------------|--------|


Refrain-
Not sure if this part

Guitar2
1.
|------6---|
|-----7----|
|----8-----|
|----8-----|
|---6------|
|----------|
2.
|------18--|
|--18------|
|----------|
|----------|
|----------|
|----------|


Chorus-

Guitar1

|-----------------|------------------------|
|-----------------|------------------------|
|-444-6666-888888-|-444-6666---------------|
|-444-6666-888888-|-444-6666-666666--------|
|-222-4444-666666-|-222-4444-666666--------|
|-----------------|----------666666--------|

|-----------------|------------------------|
|-----------------|------------------------|
|-444-6666-888888-|-444-6666---------6-6-6-|
|-444-6666-888888-|-444-6666-444444--6-6-6-|
|-222-4444-666666-|-222-4444-444444--4-4-4-|
|-----------------|----------444444--------|


Guitar2
|-----------------------------|-------------------------------|
|-----------------------------|-------------------------------|
|-888-10101010-11111111111----|---888--11111111-131313131313--|
|-xxx-x-x-x-x--x-x-x-x-x-x----|---xxx--xxxxxxx--xxxxxxxxxxxx--|
|-666-8-8-8-8--9-9-9-9-9-9----|---666--9-9-9-9--111111111111--|
|-----------------------------|-------------------------------|

|-----------------------------|-----------------------------|-------|
|-----------------------------|-----------------------------|-------|
|-888-10101010-111111111111---|---888-10101010-111111111111-|-6-6-6-|
|-xxx-x-x-x-x--x-x-x-x-x-x----|---xxx-xxxxxxx--xxxxxxxxxxx--|-x-x-x-|
|-666-8-8-8-8--9-9-9-9-9-9----|---666-8-8-8-8--9-9-9-9-9-9--|-4-4-4-|
|-----------------------------|-----------------------------|-------|

Continued..

Guitar1
|------------------------------------------|
|------------------------------------------|
|--444444---------------------666666-------|
|--444444---444444---111111---666666-------|
|--222222---444444---111111---444444-------|
|-----------444444---111111----------------|

|--------------------------------|
|--------------------------------|
|--444444------------666666666---|
|--444444---444444---666666666---|
|--222222---444444---444444444---|
|-----------444444---------------|

Guitar2
|------------------|---------------------|
|------------------|---------------------|
|--12-12/15151515--|--1111/10101010------|
|--x--x---x-x-x-x--|--x-x--x-x-x-x-------|
|--14-14/13131313--|--9-9-/8-8-8-8-------|
|------------------|---------------------|

|------------------|---------------------|
|------------------|---------------------|
|--12-12/15151515--|--181818181818-------|
|--x---x-x-x-x-x---|--x-x-x-x-x-x--------|
|--14-14/13131313--|--161616161616-------|
|------------------|---------------------|

Repeat verse 1&2,refrain,chorus


Bridge-P.M.
Guitar1

|------------------------------------------|
|------------------------------------------|
|------------------------------------------|
|-1111111-3333-4444-9999-8888-6666-3333----|
|-1111111-3333-4444-9999-8888-6666-3333----|
|-1111111-3333-4444-9999-8888-6666-3333----|

|------------------------------------------|
|------------------------------------------|
|------------------------------------------|
|-1111-3333-4444-6666-9999-8888-6666-3333--|
|-1111-3333-4444-6666-9999-8888-6666-3333--|
|-1111-3333-4444-6666-9999-8888-6666-3333--|

Continued-



Guitar1

|-----------------------------------------------------|   |------|
|------------------------9-----12-----11------9-------|   |------|
|---8-----10-----11-----------------------------------|2x |------|
|-----------------------------------------------------|   |--4~--|
|-----------------------------------------------------|   |--4~--|
|-----------------------------------------------------|   |--4~--|


Guitar2

|-----------------------------------------------------|   |------|
|--------------------------------------------------9--|   |------|
|-8-11p8-8-11p8-8-11p8-8-11p8-8-11p8-8-11p8-8-11p8----|2x |------|
|-----------------------------------------------------|   |--4~--|
|-----------------------------------------------------|   |--4~--|
|-----------------------------------------------------|   |--4~--|




Outro-

Guitar1
|------------------------------------------|
|------------------------------------------|
|--444444---------------------666666-------|
|--444444---444444---111111---666666-------|
|--222222---444444---111111---444444-------|
|-----------444444---111111----------------|

|--------------------------------|
|--------------------------------|
|--444444------------666666666---|
|--444444---444444---666666666---|
|--222222---444444---444444444---|
|-----------444444---------------|

Guitar2
Guitar2
|------------------|---------------------|
|------------------|---------------------|
|--12-12/15151515--|--1111/10101010------|
|--x--x---x-x-x-x--|--x-x--x-x-x-x-------|
|--14-14/13131313--|--9-9-/8-8-8-8-------|
|------------------|---------------------|

|------------------|---------------------|
|------------------|---------------------|
|--12-12/15151515--|--181818181818-------|
|--x---x-x-x-x-x---|--x-x-x-x-x-x--------|
|--14-14/13131313--|--161616161616-------|
|------------------|---------------------|

Continued...

Guitar1

|-----------------|------------------|
|-----------------|------------------|
|-444-6666-888888-|-444-6666---------|
|-444-6666-888888-|-444-6666-444444--|
|-222-4444-666666-|-222-4444-444444--|
|-----------------|----------444444--|

|-----------------|------------------------|
|-----------------|------------------------|
|-444-6666-888888-|-444-6666---------------|
|-444-6666-888888-|-444-6666-666666--------|
|-222-4444-666666-|-222-4444-666666--------|
|-----------------|----------666666--------|

|-----------------|------------------|
|-----------------|------------------|
|-444-6666-888888-|-444-6666---------|
|-444-6666-888888-|-444-6666-444444--|
|-222-4444-666666-|-222-4444-444444--|
|-----------------|----------444444--|


Guitar2

|-----------------------------|-----------------------------|
|-----------------------------|-----------------------------|
|-888-10101010-111111111111---|---888-10101010-111111111111-|
|-xxx-x-x-x-x--x-x-x-x-x-x----|---xxx-xxxxxxx--xxxxxxxxxxx--|
|-666-8-8-8-8--9-9-9-9-9-9----|---666-8-8-8-8--9-9-9-9-9-9--|
|-----------------------------|-----------------------------|

|-----------------------------|-------------------------------|
|-----------------------------|-------------------------------|
|-888-10101010-11111111111----|---888--11111111-131313131313--|
|-xxx-x-x-x-x--x-x-x-x-x-x----|---xxx--xxxxxxx--xxxxxxxxxxxx--|
|-666-8-8-8-8--9-9-9-9-9-9----|---666--9-9-9-9--111111111111--|
|-----------------------------|-------------------------------|

|-----------------------------|-----------------------------|
|-----------------------------|-----------------------------|
|-888-10101010-111111111111---|---888-10101010-111111111111-|
|-xxx-x-x-x-x--x-x-x-x-x-x----|---xxx-xxxxxxx--xxxxxxxxxxx--|
|-666-8-8-8-8--9-9-9-9-9-9----|---666-8-8-8-8--9-9-9-9-9-9--|
|-----------------------------|-----------------------------|


End

G1
|----------|------------|
|----------|------------|
|----------|------------|
|---1~-----|----3~------|
|---1~-----|----3~------|
|---1~-----|----3~------|

G2
|----------|------------|
|----------|------------|
|---8~-----|---10~------|
|---x------|---x--------|
|---6~-----|---8~-------|
|----------|------------|




hi !to all cordians(SHC) 

            
            
Suggest correction
Creating personal tab
Creating personal tab
You can edit any tab online and save it as your Personal.

You can edit, replace or remove any tab part or add personal notes – all changes will be seen only by you.

Personal tabs can be accessed anytime from any device, even offline.
Learn more »
comments
print report bad tab
10 comments total. Showing first comments.
0 reply
funken 10 Jun 28, 2007 02:44 AM

i am pretty optimistic~~~~~w/ this song

+1 reply
tom451 100 Jun 30, 2007 02:25 AM

I believe this is played in this tuning, C# G# C# F# A# D# because the C# in the verse is deeper sounding than what's written on this tab...i'm pretty sure on that one, decent tab though

0 reply
fastlanestoner 422 Oct 02, 2007 07:27 AM

great tab!

guest
You may want to rate the tab now too:
select rating
Wanna post a correction for this tab? Suggest correction