Oops, an error
Loading. Please wait.
We have an official For A Pessimist Im Pretty Optimistic tab made by UG professional guitarists. Check out the tab »
×
2,156 views 1 this week
no commentswrite comment
1 2 3 4 5
1 last vote to show rating
add to favorites
×
Save as Personal and add changes to this tab that will be seen only by you. Learn more ›
×
You can save this tab as Personal to edit and correct it or add notes. All changes will be seen only by you. Learn more »
launch autoscroll
font size
0
reset
how to read this tab
guitar tuner
backing track
0:00
0:00
edit
Autoscroll
slow
fast
+/-
esc
set tempo
stop
Author
For  a Pessimist , Im Pretty Optimistic Tab 

Guitar 1 -  Drop D
Guitar 2 – Drop D

GUITAR  1
INTRO : REPEAT TWICE
|------------------------------------------|
|------------------------------------------|
|--444444---------------------666666-------|
|--444444---444444---111111---666666-------|
|--222222---444444---111111---444444-------|
|-----------444444---111111----------------|

|--------------------------------|
|--------------------------------|
|--444444------------666666666---|
|--444444---444444---666666666---|
|--222222---444444---444444444---|
|-----------444444---------------|
 
VERSE :
|--------------|------------------|
|--------------|------------------|
|--------------|--4444444444444---|
|---4~---------|--4444444444444---|
|---4~---------|--2222222222222---|
|---4~---------|------------------|

|--------------|------------------|
|--------------|--9999999999999---|
|---4~---------|--7777777777777---|
|---4~---------|--7777777777777---|
|---4~---------|--7777777777777---|

VERSE 2 :

|--------------------------------|-----|---------------|--------|
|--------------------------------|-----|---------------|--------|
|--------------------------------|-----|---------------|--6~-6~-|
|-44-444-444-444-466-666-666-666-|-1-1-|---------------|--6~-6~-|
|-44-444-444-444-466-666-666-666-|-1-1-|---------------|--4~-4~-|
|-44-444-444-444-466-666-666-666-|-1-1-|---------------|--------|


REFRAIN :

|-------------|
|-------------|
|-------------|
|-6--8--9--11-|2x
|-6--8—-9--11-|
|-6--8—-9--11-|

CHORUS :

|-----------------|------------------------|
|-----------------|------------------------|
|-444-6666--------|-444-6666---------------|
|-444-6666-111111-|-444-6666-666666--------|
|-222-4444-111111-|-222-4444-666666--------|
|----------111111-|----------666666--------|

|-----------------|------------------------|
|-----------------|------------------------|
|-444-6666--------|-444-6666---------6-6-6-|
|-444-6666-111111-|-444-6666-444444--6-6-6-|
|-222-4444-111111-|-222-4444-444444--4-4-4-|
|----------111111-|----------444444--------|

|------------------------------------------|
|------------------------------------------|
|--444444---------------------666666-------|
|--444444---444444---111111---666666-------|
|--222222---444444---111111---444444-------|
|-----------444444---111111----------------|

|--------------------------------|
|--------------------------------|
|--444444------------666666666---|
|--444444---444444---666666666---|
|--222222---444444---444444444---|
|-----------444444---------------|

VERSE :
|--------------|------------------|
|--------------|------------------|
|--------------|--4444444444444---|
|---4~---------|--4444444444444---|
|---4~---------|--2222222222222---|
|---4~---------|------------------|

|--------------|------------------|
|--------------|------------------|
|--------------|--4444444444444---|
|---4~---------|--4444444444444---|
|---4~---------|--2222222222222---|
|---4~---------|------------------|



VERSE 2 :

|--------------------------------|-----|---------------|--------|
|--------------------------------|-----|---------------|--------|
|--------------------------------|-----|---------------|--6~-6~-|
|-44-444-444-444-466-666-666-666-|-1-1-|---------------|--6~-6~-|
|-44-444-444-444-466-666-666-666-|-1-1-|---------------|--4~-4~-|
|-44-444-444-444-466-666-666-666-|-1-1-|---------------|--------|

REFRAIN :

|-------------|
|-------------|
|-------------|
|-6--8--9--11-|2x
|-6--8—-9--11-|
|-6--8—-9--11-|

CHORUS :

|-----------------|------------------------|
|-----------------|------------------------|
|-444-6666--------|-444-6666---------------|
|-444-6666-111111-|-444-6666-666666--------|
|-222-4444-111111-|-222-4444-666666--------|
|----------111111-|----------666666--------|

|-----------------|------------------------|
|-----------------|------------------------|
|-444-6666--------|-444-6666---------6-6-6-|
|-444-6666-111111-|-444-6666-444444--6-6-6-|
|-222-4444-111111-|-222-4444-444444--4-4-4-|
|----------111111-|----------444444--------|

|------------------------------------------|
|------------------------------------------|
|--444444---------------------666666-------|
|--444444---444444---111111---666666-------|
|--222222---444444---111111---444444-------|
|-----------444444---111111----------------|

|--------------------------------|
|--------------------------------|
|--444444------------666666666---|
|--444444---444444---666666666---|
|--222222---444444---444444444---|
|-----------444444---------------|










BRIDGE : 

|-----------------------------------------|
|-----------------------------------------|
|-----------------------------------------|
|-11111111-3333-4444-9999-8888-6666-33333-|
|-11111111-3333-4444-9999-8888-6666-33333-|
|-11111111-3333-4444-9999-8888-6666-33333-|

|-----------------------------------------------------|   |------|
|------------------------9-----12-----11------9-------|   |------|
|---8-----10-----11-----------------------------------|2x |------|
|-----------------------------------------------------|   |--4~--|
|-----------------------------------------------------|   |--4~--|
|-----------------------------------------------------|   |--4~--|

CHORUS :

|------------------------------------------|
|------------------------------------------|
|--444444---------------------666666-------|
|--444444---444444---111111---666666-------|
|--222222---444444---111111---444444-------|
|-----------444444---111111----------------|

|--------------------------------|
|--------------------------------|
|--444444------------666666666---|
|--444444---444444---666666666---|
|--222222---444444---444444444---|
|-----------444444---------------|




|-----------------|------------------|
|-----------------|------------------|
|-444-6666--------|-444-6666---------|
|-444-6666-111111-|-444-6666-444444--|
|-222-4444-111111-|-222-4444-444444--|
|----------111111-|----------444444--|

|-----------------|------------------------|
|-----------------|------------------------|
|-444-6666--------|-444-6666---------------|
|-444-6666-111111-|-444-6666-666666--------|
|-222-4444-111111-|-222-4444-666666--------|
|----------111111-|----------666666--------|

|-----------------|------------------|
|-----------------|------------------|
|-444-6666--------|-444-6666---------|
|-444-6666-111111-|-444-6666-444444--|
|-222-4444-111111-|-222-4444-444444--|
|----------111111-|----------444444--|

|----------|------------|
|----------|------------|
|----------|------------|
|---1~-----|----3~------|
|---1~-----|----3~------|
|---1~-----|----3~------|


GUITAR 2 :

INTRO : REPEAT TWICE

|--------------------|--------------------|
|--------------------|--------------------|
|--16-16-15-15-1515--|--11-11-10-10-1010--|
|--x--x--x--x--x-x---|--x--x--x--x--x-----|
|--14-14-13-13-1313--|--9--9--8--8--9-9---|
|--------------------|--------------------|
                                           
|--------------------|------------------|
|--------------------|------------------|
|--16-16-15-15-1515--|--18-18-18-18-18--|
|--x--x--x--x--x-x---|--x--x--x--x---x--|
|--14-14-13-13-1313--|--16-16-16-16-16--|
|--------------------|------------------|

VERSE :


|--------------|------------------|
|--------------|------------------|
|--------------|--4444444444444---|
|--------------|--4444444444444---|
|--------------|--2222222222222---|
|--------------|------------------|

|--------------|------------------|
|--------------|------------------|
|--------------|--4444444444444---|
|--------------|--4444444444444---|
|--------------|--2222222222222---|
|--------------|------------------|







VERSE 2 :

|--------------------------------|-----|---------------|--------|
|--------------------------------|-----|---------------|--------|
|--------------------------------|-----|-8888/10101010-|--6--6--|
|-44-444-444-444-466-666-666-666-|-1-1-|-8888/10101010-|--6--6--|
|-44-444-444-444-466-666-666-666-|-1-1-|-6666/9-9-9-9--|--4--4--|
|-44-444-444-444-466-666-666-666-|-1-1-|---------------|--------|

REFRAIN : WITH HARMONICS 

1.
|------11*-|
|---11*----|
|----------|
|----------|
|----------|
|----------|

|-----6*---|
|--6*------|
|----------|
|----------|
|----------|

CHORUS :

|-----------------------------|-------------------------------|
|-----------------------------|-------------------------------|
|-888-10101010-11111111111----|---888--11111111-131313131313--|
|-xxx-x-x-x-x--x-x-x-x-x-x----|---xxx--xxxxxxx--xxxxxxxxxxxx--|
|-666-8-8-8-8--9-9-9-9-9-9----|---666--9-9-9-9--111111111111--|
|-----------------------------|-------------------------------|

|-----------------------------|-----------------------------|-------|
|-----------------------------|-----------------------------|-------|
|-888-10101010-111111111111---|---888-10101010-111111111111-|-6-6-6-|
|-xxx-x-x-x-x--x-x-x-x-x-x----|---xxx-xxxxxxx--xxxxxxxxxxx--|-x-x-x-|
|-666-8-8-8-8--9-9-9-9-9-9----|---666-8-8-8-8--9-9-9-9-9-9--|-4-4-4-|
|-----------------------------|-----------------------------|-------|

|------------------|---------------------|
|------------------|---------------------|
|--12-12/15151515--|--1111/10101010------|
|--x--x---x-x-x-x--|--x-x--x-x-x-x-------|
|--14-14/13131313--|--9-9-/8-8-8-8-------|
|------------------|---------------------|

|------------------|---------------------|
|------------------|---------------------|
|--12-12/15151515--|--181818181818-------|
|--x---x-x-x-x-x---|--x-x-x-x-x-x--------|
|--14-14/13131313--|--161616161616-------|
|------------------|---------------------|

VERSE :


|--------------|------------------|
|--------------|------------------|
|--------------|--4444444444444---|
|--------------|--4444444444444---|
|--------------|--2222222222222---|
|--------------|------------------|

|--------------|------------------|
|--------------|------------------|
|--------------|--4444444444444---|
|--------------|--4444444444444---|
|--------------|--2222222222222---|
|--------------|------------------|







VERSE 2 :

|--------------------------------|-----|---------------|--------|
|--------------------------------|-----|---------------|--------|
|--------------------------------|-----|-8888/10101010-|--6--6--|
|-44-444-444-444-466-666-666-666-|-1-1-|-8888/10101010-|--6--6--|
|-44-444-444-444-466-666-666-666-|-1-1-|-6666/9-9-9-9--|--4--4--|
|-44-444-444-444-466-666-666-666-|-1-1-|---------------|--------|

REFRAIN : WITH HARMONICS 

1.
|------11*-|
|---11*----|
|----------|
|----------|
|----------|
|----------|

|-----6*---|
|--6*------|
|----------|
|----------|
|----------|

CHORUS :

|-----------------------------|-------------------------------|
|-----------------------------|-------------------------------|
|-888-10101010-11111111111----|---888--11111111-131313131313--|
|-xxx-x-x-x-x--x-x-x-x-x-x----|---xxx--xxxxxxx--xxxxxxxxxxxx--|
|-666-8-8-8-8--9-9-9-9-9-9----|---666--9-9-9-9--111111111111--|
|-----------------------------|-------------------------------|

|-----------------------------|-----------------------------|-------|
|-----------------------------|-----------------------------|-------|
|-888-10101010-111111111111---|---888-10101010-111111111111-|-6-6-6-|
|-xxx-x-x-x-x--x-x-x-x-x-x----|---xxx-xxxxxxx--xxxxxxxxxxx--|-x-x-x-|
|-666-8-8-8-8--9-9-9-9-9-9----|---666-8-8-8-8--9-9-9-9-9-9--|-4-4-4-|
|-----------------------------|-----------------------------|-------|

|------------------|---------------------|
|------------------|---------------------|
|--12-12/15151515--|--1111/10101010------|
|--x--x---x-x-x-x--|--x-x--x-x-x-x-------|
|--14-14/13131313--|--9-9-/8-8-8-8-------|
|------------------|---------------------|

|------------------|---------------------|
|------------------|---------------------|
|--12-12/15151515--|--181818181818-------|
|--x---x-x-x-x-x---|--x-x-x-x-x-x--------|
|--14-14/13131313--|--161616161616-------|
|------------------|---------------------|





BRIDGE :

|------------------------------------------|
|------------------------------------------|
|------------------------------------------|
|-1111-3333-4444-6666-9999-8888-6666-3333--|
|-1111-3333-4444-6666-9999-8888-6666-3333--|
|-1111-3333-4444-6666-9999-8888-6666-3333--|

|-----------------------------------------------------|   |------|
|--------------------------------------------------9--|   |------|
|-8-11p8-8-11p8-8-11p8-8-11p8-8-11p8-8-11p8-8-11p8----|2x |------|
|-----------------------------------------------------|   |--4~--|
|-----------------------------------------------------|   |--4~--|
|-----------------------------------------------------|   |--4~--|


CHORUS :

|------------------|---------------------|
|------------------|---------------------|
|--12-12/15151515--|--1111/10101010------|
|--x--x---x-x-x-x--|--x-x--x-x-x-x-------|
|--14-14/13131313--|--9-9-/8-8-8-8-------|
|------------------|---------------------|

|------------------|---------------------|
|------------------|---------------------|
|--12-12/15151515--|--181818181818-------|
|--x---x-x-x-x-x---|--x-x-x-x-x-x--------|
|--14-14/13131313--|--161616161616-------|
|------------------|---------------------|

|-----------------------------|-----------------------------|
|-----------------------------|-----------------------------|
|-888-10101010-111111111111---|---888-10101010-111111111111-|
|-xxx-x-x-x-x--x-x-x-x-x-x----|---xxx-xxxxxxx--xxxxxxxxxxx--|
|-666-8-8-8-8--9-9-9-9-9-9----|---666-8-8-8-8--9-9-9-9-9-9--|
|-----------------------------|-----------------------------|

|-----------------------------|-------------------------------|
|-----------------------------|-------------------------------|
|-888-10101010-11111111111----|---888--11111111-131313131313--|
|-xxx-x-x-x-x--x-x-x-x-x-x----|---xxx--xxxxxxx--xxxxxxxxxxxx--|
|-666-8-8-8-8--9-9-9-9-9-9----|---666--9-9-9-9--111111111111--|
|-----------------------------|-------------------------------|

|-----------------------------|-----------------------------|
|-----------------------------|-----------------------------|
|-888-10101010-111111111111---|---888-10101010-111111111111-|
|-xxx-x-x-x-x--x-x-x-x-x-x----|---xxx-xxxxxxx--xxxxxxxxxxx--|
|-666-8-8-8-8--9-9-9-9-9-9----|---666-8-8-8-8--9-9-9-9-9-9--|
|-----------------------------|-----------------------------|


|----------|------------|
|----------|------------|
|---8~-----|---10~------|
|---x------|---x--------|
|---6~-----|---8~-------|
|----------|------------|

            
            
Suggest correction
Creating personal tab
Creating personal tab
You can edit any tab online and save it as your Personal.

You can edit, replace or remove any tab part or add personal notes – all changes will be seen only by you.

Personal tabs can be accessed anytime from any device, even offline.
Learn more »
Give kudos to tab author, rate the tab!
1 2 3 4 5
comments
print report bad tab
guest
You may want to rate the tab now too:
select rating
Wanna post a correction for this tab? Suggest correction