Oops, an error
Loading. Please wait.
We have an official Hallelujah tab made by UG professional guitarists. Check out the tab »
×
6,473 views 3 this week
3 commentsread comments
1 2 3 4 5
x 5
add to favorites
×
Save as Personal and add changes to this tab that will be seen only by you. Learn more ›
×
You can save this tab as Personal to edit and correct it or add notes. All changes will be seen only by you. Learn more »
launch autoscroll
font size
0
reset
guitar tuner
edit
Autoscroll
slow
fast
+/-
esc
set tempo
stop
Author
Difficulty
Song:Hallelujah
Artist: Paramore
Album: Riot

Hope that you maylike this thanks. Just listen to the song for you to know
where the bass is and the timing. thanks

Intro
G|------------------------------------|
D|------------------------------------|
A|------------------------------------| (2x)
E|--7777777777777777666666000000000---|

Verse
G|----------------------------------------|
D|----------------------------------------|
A|----------------------------------------| (2x)
E|--77-7~-44-4~-22-2~-77-7~--44-4~-22-2~--|

G|------------------------------------|
D|------------------------------------|
A|------------------------------------|
E|--777777777777777744444444-0-0-0-0--|

Chorus
G|------------------------------------|
D|------------------------------------|
A|------------------------------------| (2x)
E|--7777777777777777444444000000000---|

G|------------------------------------------------|
D|------------------------------------------------|
A|------------------------------------------------| (2x)
E|--7-77-7-77-7-77-7-77-4-44-44-4-0-00-0-00-0-00--|

Verse II
G|----------------------------------------|
D|----------------------------------------|
A|----------------------------------------| (2x)
E|--77-7~-44-4~-22-2~-77-7~--44-4~-22-2~--|

G|------------------------------------|
D|------------------------------------|
A|------------------------------------|
E|--777777777777777744444444-0-0-0-0--|

Chorus
G|------------------------------------|
D|------------------------------------|
A|------------------------------------| (2x)
E|--7777777777777777444444000000000---|

G|------------------------------------------------|
D|------------------------------------------------|
A|------------------------------------------------| (2x)
E|--7-77-7-77-7-77-7-77-4-44-4-44-0-00-0-00-0-00--|

Riff:
G|-------------------------------------------------|
D|-------------------------------------------------|
A|--666777999-14-14-14-14-14-14--666777999-999999--| (4x)
E|-------------------------------------------------|

G|--------------------------------|
D|--------------------------------|
A|--222222222222222222244466676~--|
E|--------------------------------|

Chorus
G|------------------------------------|
D|------------------------------------|
A|------------------------------------| (2x)
E|--7777777777777777444444000000000---|

G|------------------------------------------------|
D|------------------------------------------------|
A|------------------------------------------------| (2x)
E|--7-77-7-77-7-77-7-77-4-44-4-44-0-00-0-00-0-00--|

End at
G|---------|
D|---------|
A|---------|
E|--77-7~--|

Thank you!

For my band mates who played with me this song in front of the crowd, I thank you!

            
            
Suggest correction
Creating personal tab
Creating personal tab
You can edit any tab online and save it as your Personal.

You can edit, replace or remove any tab part or add personal notes – all changes will be seen only by you.

Personal tabs can be accessed anytime from any device, even offline.
Learn more »
comments
print report bad tab
3 comments total.
0 reply
16_jhuris 10 Nov 15, 2007 12:12 AM

i like your tabs, they are cools, please post tab for crushcrushcrush tab please thanks

0 reply
punk man dude 69 Dec 29, 2007 05:39 AM

hey dude this is a cool tab keep it up

0 reply
spiff-corgi 831 Feb 12, 2008 10:41 AM

totally off.

riff
|------------------------------------|
|------------------------------------|
|------------------------------------|
|7777777777777777-44444444-0---------|

verse
|---------------------|
|---------------------|
|---------------------|
|777-----444----666---|

no idea how this got 5stars off 2 people.

guest
You may want to rate the tab now too:
select rating
Wanna post a correction for this tab? Suggest correction