Oops, an error
Loading. Please wait.
We have an official Hallelujah tab made by UG professional guitarists. Check out the tab »
×
2,578 views 1 this week
1 commentread comment
1 2 3 4 5
x 3
add to favorites
×
Save as Personal and add changes to this tab that will be seen only by you. Learn more ›
×
You can save this tab as Personal to edit and correct it or add notes. All changes will be seen only by you. Learn more »
launch autoscroll
font size
0
reset
guitar tuner
edit
Autoscroll
slow
fast
+/-
esc
set tempo
stop
-------------------------------------------------------------------------------
			     Hallelujah - Paramore
-------------------------------------------------------------------------------

Tabbed By : ParamoreMadXD
This is my first tab so please rate :D
i think this is pretty accurate,but if theres any mistakes,feel free to correct....


Tuning:Drop D
The guitar starts this song,but after a few bars,the bass starts.listen to the song and 
hear it.

Intro:
G|-------------------------------------------------------------------------|
D|-------------------------------------------------------------------------|
A|---2-2-2-2-2-2-2-2-2-2-2-2-2-2-2-2---------------------------------------|
E|-----------------------------------6-6-6-6-6-6-2-2-2-2-2-2-2-2-2-2---X2--|
Verse 1(listen to the song for timing):
G|-------------------------------------------------------------------------|
D|-------------------------------------------------------------------------|
A|--2-2--2------------1-1--1----------X4---2----2--------------------------|
E|-----------6-6--6--------------------------------------------------------|
Chorus 1:
G|-------------------------------------------------------------------------|
D|-------------------------------------------------------------------------|
A|--2-2-2-2-2-2-2-2-2-2-2-2-2-2-2-2----------------------------------------|
E|----------------------------------6-6-6-6-6-6-2-2-2-2-2-2-2-2-2-2---X2---|

G|-------------------------------------------------------------------------|
D|-------------------------------------------------------------------------|
A|--2-2--2---2-2--2---2-2--2------2----------------------------------------|
E|-------------------------------------------------------------------------|
Verse 2:
G|-------------------------------------------------------------------------|
D|-------------------------------------------------------------------------|
A|--2-2--2------------1-1--1----------X4---2----2--------------------------|
E|-----------6-6--6--------------------------------------------------------|
Chorus 2:
G|-------------------------------------------------------------------------|
D|-------------------------------------------------------------------------|
A|--2-2-2-2-2-2-2-2-2-2-2-2-2-2-2-2----------------------------------------|
E|----------------------------------6-6-6-6-6-6-2-2-2-2-2-2-2-2-2-2--X4----|

G|-------------------------------------------------------------------------|
D|-------------------------------------------------------------------------|
A|--2-2--2---2-2--2---2-2--2---2-2--2--------------------------------------|
E|-------------------------------------------------------------------------|
Bridge(not too sure about the timing):
G|-------------------------------------------------------------------------|
D|-------------------------------------------------------------------------|
A|-------------------------------------------------------------------------|
E|--1-1-1-2-2-2-6-6-6-9-9-9-9-9-9-9--1-1-1-2-2-2-4-4-4-4-4-4-4-4-4-4-X5----|
Final Chorus:
G|-------------------------------------------------------------------------------|
D|-------------------------------------------------------------------------------|
A|2-2-2-2-2-2-2-2-2-2-2-2-2-2-2-2------------------------------------------------|
E|--------------------------------6-6-6-6-6-6-2-2-2-2-2-2-2-2-2-2-2-2-X4-2-2--2--|

END

            
            
Suggest correction
Creating personal tab
Creating personal tab
You can edit any tab online and save it as your Personal.

You can edit, replace or remove any tab part or add personal notes – all changes will be seen only by you.

Personal tabs can be accessed anytime from any device, even offline.
Learn more »
Give kudos to tab author, rate the tab!
1 2 3 4 5
comments
print report bad tab
1 comment total.
0 reply
Peacemaker21 37 Dec 05, 2009 11:40 AM

This tab frikin sucks

guest
You may want to rate the tab now too:
select rating
Wanna post a correction for this tab? Suggest correction