Oops, an error
Loading. Please wait.
We have an official Hallelujah tab made by UG professional guitarists. Check out the tab »
×
12,878 views 3 this week
6 commentsread comments
1 2 3 4 5
x 7
add to favorites
×
Save as Personal and add changes to this tab that will be seen only by you. Learn more ›
×
You can save this tab as Personal to edit and correct it or add notes. All changes will be seen only by you. Learn more »
launch autoscroll
font size
0
reset
guitar tuner
edit
Autoscroll
slow
fast
+/-
esc
set tempo
stop
Author
-------------------------------------------------------------------------------
			     Hallelujah - Paramore
-------------------------------------------------------------------------------

Tabbed By : MusicMan24
e-mail: a7t1r1@hotmail.com

I've watched multiple videos of Paramore playing this song live,
and this is how Jeremy plays this song. And really the only 2
things that I'm not sure about is the 2nd pre-chorus and the bridge.
But the rest I'm 100% sure is right.



Tuning: Drop D (DADG)


Intro

G|---------------------------------|
D|---------------------------------|
A|----------------------------7777-| x1
D|9999999999999999-666666-2-22-----|

G|-----------------------------------|
D|-----------------------------------|
A|-----------------------------------| x1
D|9999999999999999-666666-222-2-22-2-|


Verse x4

G|-------------------------|
D|-------------------------|
A|-------------------------|
D|99-9~-------66-6~--88-8~-|


Pre-Chorus x1

G|-------------|
D|-------------|
A|-----------7-|
D|9~------2\7--|


Chorus

G|-----------------------------------|
D|-----------------------------------|
A|-----------------------------------| x2
D|9999999999999999-666666-222-2-22-2-|

G|-------------------------|
D|-------------------------|
A|-------------------------| x2
D|999-999-999-999-6-666-2~-|


Verse x4

G|---------------------|
D|---------------------|
A|---------------------|
D|9~------66-6~--88-8~-|


Pre-Chorus x1

G|-------|
D|-------|
A|-------|
D|7/2-0~-|

Chorus


Bridge x4 (Wait until 2:20)

G|---------------------------------------|
D|---------------------------------------|
A|---------------------------------------|
D|111-222-444-66666666--111-222-44444444-|

Chorus


Outro x1

G|------|
D|------|
A|------|
D|99-9~-|


PEACE


| /  slide up
| \  slide down
| h  hammer-on
| p  pull-off
| ~  vibrato
| +  harmonic
| x  Mute note
===============================================================================

            
            
Suggest correction
Creating personal tab
Creating personal tab
You can edit any tab online and save it as your Personal.

You can edit, replace or remove any tab part or add personal notes – all changes will be seen only by you.

Personal tabs can be accessed anytime from any device, even offline.
Learn more »
comments
print report bad tab
6 comments total. Showing first comments.
0 reply
Svedde 474 Jun 27, 2009 10:17 AM

Wonderful tab!! I've also been trying to get the 2nd pre-chorus and I think I just found the right note. I think Jeremy uses a 5-string bass with the 5th string being a low B. So, what he does is:
G|--------------|
D|--------------|
A|--------------|
E|--------------|
B|--12~---\0----|

A zero on the E(D)-string would make a D note and it wouldn't make much sence if he'd play that bass note with a B major on the guitar.
Great tab! 5*

0 reply
Svedde 474 Jun 27, 2009 10:36 AM

No drop D would also make it easier to play ex the chorus ;) :
G|---------------------------------|
D|---------------------------------|
A|2222222222222222-----------------|
E|-----------------4444440000000000|
B|---------------------------------|

0 reply
Peacemaker21 37 Jul 11, 2009 06:56 PM

great tab, and i really don't think paramore would use a 5-string buddy

guest
You may want to rate the tab now too:
select rating
Wanna post a correction for this tab? Suggest correction