Oops, an error
Loading. Please wait.
We have an official Miracle tab made by UG professional guitarists. Check out the tab »
×
3,778 views 1 this week
no commentswrite comment
1 2 3 4 5
2 more votes to show rating
add to favorites
×
Save as Personal and add changes to this tab that will be seen only by you. Learn more ›
×
You can save this tab as Personal to edit and correct it or add notes. All changes will be seen only by you. Learn more »
launch autoscroll
font size
0
reset
guitar tuner
edit
Autoscroll
slow
fast
+/-
esc
set tempo
stop
Author
Paramore-Miracle

Please Note:

i ddnt origainally do this tab, i cant remember where i found it, but its not on 
guitar, so i thought i would post it!!!

it is 100% right! am sure!!!!!

Intro
G|-----------------------------------------------------|
D|-----------------------------------------------------|
A|444444-00000000-44444444-22222-242-00000000----------|
E|--------------------------------------------0000-22-2|

G|--------------------------------------------------------------|
D|--------------------------------------------------------------|
A|4444444-0000000000-444444444-2222222-242-00000000---------0~--|
E|--------------------------------------------------0-0-2-2-----|

Verse bass doesn't come in until  (0:30)
G|----------------------------------------------------------------------------|
D|----------------------------------------------------------------------------|
A|-7\-00000000-2222------------------------00000000-2222----------------------|
E|------------------4444-55555555-00000000---------------4444-55555555-0-0-2-2|

Chorus
G|---------------------------------------------------------------|   |------|
D|---------------------------------------------------------------|   |------|
A|444444444-00000000000-44444444-2222222-242-0000000000----------|   |--0~--|
E|------------------------------------------------------00-0-2-22|x2 |------|

Verse
G|-------------------------------------|    |------------|
D|-------------------------------------|    |------------|
A|00000000-2222------------------------|    |-------0-0~-|
E|--------------4444-55555555-00000000-| x4 |0-0-22------|

Chorus x2

Bridge "let's not fake this..."
G|-------------------------------------------------|
D|-------------------------------------------------|
A|444444444444444444444444444444444---------222222-|
E|----------------------------------0000000--------|

"Get it right this time.."
G|---------------------------------------------|
D|---------------------------------------------|
A|444-4-444-4--444-4-444-4---------22222222222-|
E|-------------------------0000000-------------| x2

Verse
G|-------------------------------------|    |--------|
D|-------------------------------------|    |--------|
A|00000000-2222------------------------|    |-0~-----|
E|--------------4444-55555555-00000000-| x3 |--------|

Chorus
G|---------------------------------------------------------------|
D|---------------------------------------------------------------|
A|444444444-00000000000-44444444-2222222-242-0000000000----------|
E|------------------------------------------------------00-0-2-22|x2

Breakdown
G|----------------------------------------------------------------------|
D|----------------------------------------------------------------------|
A|00000000000000000000000000000000-444444444444444444444444444444444-22-|
E|----------------------------------------------------------------------| x2

Xx-Nad-Rd-xX@hotmail.co.uk

            
            
Suggest correction
Creating personal tab
Creating personal tab
You can edit any tab online and save it as your Personal.

You can edit, replace or remove any tab part or add personal notes – all changes will be seen only by you.

Personal tabs can be accessed anytime from any device, even offline.
Learn more »
Give kudos to tab author, rate the tab!
1 2 3 4 5
comments
print report bad tab
guest
You may want to rate the tab now too:
select rating
Wanna post a correction for this tab? Suggest correction