Oops, an error
Loading. Please wait.
We have an official Miracle tab made by UG professional guitarists. Check out the tab »
×
8,232 views 3 this week
2 commentsread comments
1 2 3 4 5
1 last vote to show rating
add to favorites
×
Save as Personal and add changes to this tab that will be seen only by you. Learn more ›
×
You can save this tab as Personal to edit and correct it or add notes. All changes will be seen only by you. Learn more »
launch autoscroll
font size
0
reset
how to read this tab
guitar tuner
edit
Autoscroll
slow
fast
+/-
esc
set tempo
stop
----------------------------------------------------------------------------
                             Miracle - Paramore
----------------------------------------------------------------------------


Tuning: Db Ab Db Gb Bb Eb


Guitar 1


Intro:

|------------------|---------------|---------------|---------------|
|------------------|---------------|---------------|---------------|
|---6-6-6---11/13--|-6-6-6--13/-16-|-8-8-8--12/-13-|-11-11-11--11--|
|---x-x-x----x/-x--|-x-x-x---x/--x-|-x-x-x---x/-X--|--x--x--x--x---|
|---4-4-4----9/11--|-4-4-4--11/-14-|-6-6-6---9/-11-|-11-11-11--9---|
|------------------|---------------|---------------|---------------|



Verse:

|-------------------------------|
|-5~--5~--7~--7~--9~----9~--7~--|
|-6~--6~--8~--8~--9~----9~--8~--|
|-7~--7~--9~--9~-11~---11~--9~--|
|-------------------------------|
|-------------------------------|



Chorus:
|-16----16-----------------|----------------------------|
|----17----17-16-17-16-----|--19----19----19----19------|
|----------------------16--|-----16----16----16----16---|
|--------------------------|----------------------------|
|--------------------------|----------------------------|
|--------------------------|----------------------------



|-16----16-----------------|----------------------------|
|----17----17-16-17-16-----|--19----19----19----19------|
|----------------------16--|-----16----16----16----16---|
|--------------------------|----------------------------|
|--------------------------|----------------------------|
|--------------------------|----------------------------|



|-----------------------------------------------------|
|-----------------------------------------------------|
|-9-9--11-11---13-13--16-16--13-13--13-13-11-11-11-11-|
|-x-x---x--x----x--x---x--x---x--x---x--x--x--x--x--x-|
|-7-7---9--9---11-11--14-14--11-11--11-11--9--9--9--9-|
|-----------------------------------------------------|




|-------------------------------------------------------|
|-------------------------------------------------------|
|---9-9--11-11-13-13--16-16--13-13--13-13-11-11-11-11---|
|---x-x--x--x---x--x---x--x---x--x---x--x--x--x--x--x---|
|---7-7--9--9--11-11--14-14--11-11--11-11--9--9--9--9---|
|-------------------------------------------------------|




|-16----16-----------------|----------------------------|
|----17----17-16-17-16-----|--19----19----19----19------|
|----------------------16--|-----16----16----16----16---|
|--------------------------|----------------------------|
|--------------------------|----------------------------|
|--------------------------|----------------------------|




Guitar 2:

Intro:

|---------------------------------------------------------|
|---------------------------------------------------------|
|---------------------------------------------------------|
|-7-7-7-x-x-x-x-7-7-7-x-x-x-x-9-9-9-x-x-x-x-11-11-11--9---|
|-7-7-7-x-x-x-x-7-7-7-x-x-x-x-9-9-9-x-x-x-x-11-11-11--9---|
|-7-7-7-x-x-x-x-7-7-7-x-x-x-x-9-9-9-x-x-x-x-11-11-11--9---|



Verse: 

|-----------------------------------|
|-----------------------------------|
|-----------------------------------|
|-7-7-7--7-7-7--9-9-9---11-11-11----|
|-7-7-7--7-7-7--9-9-9---11-11-11----|
|-7-7-7--7-7-7--9-9-9---11-11-11----|
PM. . .  . . .  . . .    .  .  .



Post-Chorus:
|------------------|
|------------------|
|------------------|
|--2~--------------|
|--2~--------------|
|--2~--------------|




Chorus: (listen for strumming pattern)

|--------------|-----------|------------|------------|
|--------------|-----------|------------|------------|
|---------6--4-|---------4-|-6--4--6--4-|---------4--|
|-7---2---6--4-|-7---2---4-|-6--4--6--4-|-7---2---4--|
|-7---2---4--2-|-7---2---2-|-4--2--4--2-|-7---2---2--|
|-7---2--------|-7---2-----|------------|-7---2------|



Post-Chorus:

|---------------------------------------------------------|
|---------------------------------------------------------|
|-6-6-6---------6-6-6---------8-8-8----------9--9--9--8---|
|-7-7-7-x-x-x-x-7-7-7-x-x-x-x-9-9-9-x-x-x-x-11-11-11--9---|
|-7-7-7-x-x-x-x-7-7-7-x-x-x-x-9-9-9-x-x-x-x-11-11-11--9---|
|-7-7-7-x-x-x-x-7-7-7-x-x-x-x-9-9-9-x-x-x-x-11-11-11--9---|



Repeat Verse x1

Repeat Chorus x1




Bridge:

Db|---------------------|
Ab|---------------------|
Db|-4-4-4-4-4-4-4-4-----|
Gb|-4-4-4-4-4-4-4-4-----|
Bb|-2-2-2-2-2-2-2-2-----|
Eb|---------------------|
PM  . . . . . . . .



Repeat Chorus x1


End:


Db|---------------------------------|
Ab|---------------------------------|
Db|-6-6-6---------6-6-6----------4~-|
Gb|-7-7-7-x-x-x-x-7-7-7-x-x-x-x--2~-|
Bb|-7-7-7-x-x-x-x-7-7-7-x-x-x-x--2~-|
Eb|-7-7-7-x-x-x-x-7-7-7-x-x-x-x--2~-|


| /  slide up
| \  slide down
| h  hammer-on
| p  pull-off
| ~  vibrato
| +  harmonic
| x  Mute note
============================================================================

            
            
Suggest correction
Creating personal tab
Creating personal tab
You can edit any tab online and save it as your Personal.

You can edit, replace or remove any tab part or add personal notes – all changes will be seen only by you.

Personal tabs can be accessed anytime from any device, even offline.
Learn more »
Give kudos to tab author, rate the tab!
1 2 3 4 5
comments
print report bad tab
2 comments total.
0 reply
HH_Emo_666 242 Jan 22, 2008 12:16 PM

i dont think this is the right song man?

0 reply
kiefermatot 10,367 Jan 22, 2008 12:54 PM

Yeah, thank you for letting me know. It's called That's What You Get. I'll change the title.

guest
You may want to rate the tab now too:
select rating
Wanna post a correction for this tab? Suggest correction