Oops, an error
Loading. Please wait.
We have an official Misery Business tab made by UG professional guitarists. Check out the tab »
×

Misery Business bass

132,926 views 84 this week
22 commentsread comments
1 2 3 4 5
x 56
add to favorites
×
Save as Personal and add changes to this tab that will be seen only by you. Learn more ›
×
You can save this tab as Personal to edit and correct it or add notes. All changes will be seen only by you. Learn more »
launch autoscroll
font size
0
reset
guitar tuner
backing track
0:00
0:00
edit
Autoscroll
slow
fast
+/-
esc
set tempo
stop
Author
This Is a very acurate tab. tell me if you see anything wrong with it.

Tuning- Db-Ab-Db-Gb

[INTR0]

Gb|-----------------------------------------------------------|-------------------|
Db|-----------------------------------------------------------|-------------------|
Ab|---------2-4-2-4-------------------2-4-2-4--------------x2-|-------------------|
Db|---4-4-4---------2-2-2-2-2-2-4-4-4---------0-0-0-0-0-0-----|--7-7-7-7-6-6-6-6--|


[VERSE 1]

Gb|-----------------------------------------------------------|-------------------|
Db|-----------------------------------------------------------|-------------------|
Ab|---------2-4-2-4-------------------2-4-2-4--------------x2-|-------------------|   x2
Db|---4-4-4---------2-2-2-2-2-2-4-4-4---------0-0-0-0-0-0-----|--7-7-7-7-6-6-6-6--|


[PRE-CHORUS 1]

Gb|----------------------------------|
Db|----------------------------------|
Ab|----------------------------------|
Db|----4-4-4-4-4-4-4-4-2-2-2-2-2-----|


[CHORUS 1]

Gb|-------------------------------------------|
Db|-------------------------------------------|
Ab|-------0-------7-------2-------------------|
Db|--0-0-0-0-7-7-7-7-2-2-2-2-4-4-4-4-6-6-6-6--|

Gb|-------------------------------------------|
Db|-------5-----------------------------------|
Ab|--5-5-5-5------7-------2-------------------|
Db|----------7-7-7-7-2-2-2-2-4-4-4-4-6-6-6-6--|


[POST-CHORUS 1]

Gb|---------------------------------------------|
Db|---------------------------------------------|
Ab|--5-5-5-5-5-5-5-0-0-0------------------------|
Db|----------------------2-2-2-2-2-2-2-4-4-4----|

Gb|----------------------------------------------|
Db|----------------------------------------------|
Ab|--5-5-5-5-5-5-5-0-0-0-------------------------|
Db|----------------------2-2-2-2-7-7-7-7-6-------|


[BRIDGE 1]

Gb|----------------------------------------------------|
Db|----------------------------------------------------|
Ab|---------2-4-2-4-------------------2-4-2-4----------|
Db|---4-4-4---------2-2-2-2-2-2-4-4-4---------0-0-0-0--|


[VERSE 2]

Gb|-----------------------------------------------------------|-------------------|
Db|-----------------------------------------------------------|-------------------|
Ab|---------2-4-2-4-------------------2-4-2-4--------------x2-|-------------------|  x2
Db|---4-4-4---------2-2-2-2-2-2-4-4-4---------0-0-0-0-0-0-----|--7-7-7-7-6-6-6-6--|


[PRE-CHORUS 2]

Gb|----------------------------------|
Db|----------------------------------|
Ab|----------------------------------|
Db|----4-4-4-4-4-4-4-4-2-2-2-2-2-----|


[CHORUS 2]

Gb|-------------------------------------------|
Db|-------------------------------------------|
Ab|-------0-------7-------2-------------------|
Db|--0-0-0-0-7-7-7-7-2-2-2-2-4-4-4-4-6-6-6-6--|

Gb|-------------------------------------------|
Db|-------5-----------------------------------|
Ab|--5-5-5-5------7-------2-------------------|
Db|----------7-7-7-7-2-2-2-2-4-4-4-4-6-6-6-6--|


[POST-CHORUS 2]

Gb|---------------------------------------------------|
Db|---------------------------------------------------|
Ab|--5-5-5-5-5-5-5-0-0-0------------------------------|
Db|----------------------2-2-2-2-2--2-2-4-4-4---------|

Gb|---------------------------------------------------|
Db|---------------------------------------------------|
Ab|--5-5-5-5-5-5-5-0-0-0------------------------------|
Db|----------------------2-2-2-2-7-7--7-7-----6-------|


[INTERLUDE] ( you come in at 1:20)

Gb|----------------------------------------------------------------------------|
Db|----------------------------------------------------------------------------|
Ab|--5~---5/12~---12/7~-9-11--5---------------5~---5/12~---12/7~---5-5-5-5-5---|
Db|------------------------------7--2--4--6------------------------------------|


[SOLO]

Gb|-------------------------------------------|
Db|-------5-----------------------------------|
Ab|--5-5-5-5------7-------2-------------------|  x2
Db|----------7-7-7-7-2-2-2-2-4-4-4-4-6-6-6-6--|

Gb|-------------------------------------------------------------|
Db|-------------------------------------------------------------|
Ab|--5-5-5-5-5-5-5-5-5-5-5--------------------------------------|
Db|-----------------------7-7-7/2-2-2-2-2-2-2-2-2-2-2/4-4-4-----|

Gb|------------------------------------------------------------------|
Db|------------------------------------------------------------------|
Ab|--5-5-5-5-5-5-5-5-5-5-5-------------------------------------------|
Db|-----------------------7-7-7/2-2-2-2-2-2-2-2-2-2-2/7-7-7-7-6------|
[CHORUS 3]

Gb|-------------------------------------------|
Db|-------------------------------------------|
Ab|-------0-------7-------2-------------------|
Db|--0-0-0-0-7-7-7-7-2-2-2-2-4-4-4-4-6-6-6-6--|

Gb|-------------------------------------------|
Db|-------5-----------------------------------|
Ab|--5-5-5-5------7-------2-------------------|
Db|----------7-7-7-7-2-2-2-2-4-4-4-4-6-6-6-6--|


[POST-CHORUS 3]

Gb|---------------------------------------------------|
Db|---------------------------------------------------|
Ab|--5-5-5-5-5-5-5-0-0-0------------------------------|
Db|----------------------2-2-2-2-2--2-2-4-4-4---------|

Gb|---------------------------------------------------|
Db|---------------------------------------------------|
Ab|--5-5-5-5-5-5-5-0-0-0------------------------------|
Db|----------------------2-2-2-2-7-7--7-7-----6-------|


[OUTRO]

Gb|--------------------------------------------------------|
Db|--------------------------------------------------------|
Ab|---------2-4-2-4-------------------2-4-2-4--------------|
Db|---4-4-4---------2-2-2-2-2-2-4-4-4---------0-0-0-0-0-0--|

Gb|------------------------------------------------------|
Db|------------------------------------------------------|
Ab|---------2-4-2-4-------------------2-4-2-4------------|
Db|---4-4-4---------2-2-2-2-2-2-4-4-4---------0-0-0-0----|

Message me for questions

************************************

| x  Dead note
| b  Bend
| /  Slide up
| ~  Vibrato

************************************

            
            
Suggest correction
Creating personal tab
Creating personal tab
You can edit any tab online and save it as your Personal.

You can edit, replace or remove any tab part or add personal notes – all changes will be seen only by you.

Personal tabs can be accessed anytime from any device, even offline.
Learn more »
comments
print report bad tab
22 comments total. Showing first comments.
+4 reply
JamieMcMe 40 Mar 03, 2009 08:39 AM

Brilliant! 100% Correct!

I listened to a Bass insturmental of this song (an official one) and this sounded just like it!

5 stars!

+2 reply
Raido 22 Apr 11, 2009 10:56 PM

damn. i hate this tuning. :\

but u've done a good job ;) 5* (acctually i've not tested, but i imageinized it :P)

+3 reply
CharGuitarGirl 41 Sep 12, 2009 04:57 AM

is it just drop d? or c# like the guitar?

guest
You may want to rate the tab now too:
select rating
Wanna post a correction for this tab? Suggest correction