Oops, an error
Loading. Please wait.

My Hero tab

version 2
version 2

Whole song

Interactive

61,230 views 12 this week
8 commentsread comments
1 2 3 4 5
x 16
add to favorites
×
Save as Personal and add changes to this tab that will be seen only by you. Learn more ›
×
You can save this tab as Personal to edit and correct it or add notes. All changes will be seen only by you. Learn more »
launch autoscroll
font size
0
reset
how to read this tab
guitar tuner
edit
Autoscroll
slow
fast
+/-
esc
set tempo
stop
PLS LIKE OUR BAND FAN PAGE @ FACEBOOK - https://www.facebook.com/SinceAstrid

Tabbed By Francis Twister
From Paramore Philippines(PARAWHORE)

Tuning- standard with capo on 4th fret  
Intro-

|--0-0-0-4-4-4-4-4-4-4-4-4--|--0-0-0-4-4-4-4-4-4-4-4-4--|   |------------0~-|
|--0-0-0-4-4-7-4-4-4-7-5-5--|--0-0-0-4-4-7-4-4-4-7-5-5--|   |------------0~-|
|--1-1-1-4-4-4-4-4-4-4-4-4--|--1-1-1-4-4-4-4-4-4-4-4-4--|   |------------2~-|
|--2-2-2-6-6-6-6-6-6-6-6-6--|--2-2-2-6-6-6-6-6-6-6-6-6--|2x |------------2~-|
|--2-2-2-4-4-4-4-4-4-4-4-4--|--2-2-2-4-4-4-4-4-4-4-4-4--|   |------4-2---0~-|
|--0-0-0--------------------|--0-0-0--------------------|   |-2~-2-----4----|



Verse-          

|--0-0-0-4-4-4-4-4-4-4-4-4--|-0-0-0-4-4-4-4-4-4-4-4-4--|
|--0-0-0-4-4-7-4-4-4-7-5-5--|-0-0-0-4-4-7-4-4-4-7-5-5--|
|--1-1-1-4-4-4-4-4-4-4-4-4--|-1-1-1-4-4-4-4-4-4-4-4-4--|
|--2-2-2-6-6-6-6-6-6-6-6-6--|-2-2-2-6-6-6-6-6-6-6-6-6--|4x
|--2-2-2-4-4-4-4-4-4-4-4-4--|-2-2-2-4-4-4-4-4-4-4-4-4--|
|--0-0-0--------------------|-0-0-0--------------------|


Chorus - 
  
 
GtrI
|-0-0-0-0-0-0-0-0-0-0-0-0-0-0-0-0-0-0--|-0-0-0-0-0-0-0-0-0-0-0-0-0-0-0-0-0-0-|
|-0-0-0-0-0-0-0-0-0-0-0-0-0-0-0-0-0-0--|-0-0-0-0-0-0-0-0-0-0-0-0-0-0-0-0-0-0-|
|-2-2-2-2-2-2-2-2-2-2-2-2-2-2-2-2-2-2--|-2-2-2-2-2-2-2-2-2-2-2-2-2-2-2-2-2-2-|
|-2-2-2-2-2-2-2-2-2-2-2-2-2-2-2-2-2-2--|-2-2-2-2-2-2-2-2-2-2-2-2-2-2-2-2-2-2-|
|-0-0-0-0-0-0-0-0-0-0-0-0-0-0-0-0-0-0--|-0-0-0-0-0-0-0-0-0-0-0-0-0-0-0-0-0-0-|
|--------------------------------------|-------------------------------------|

|-0-0-0-0-0-0-0-0-0-0-0-0-0-0-0-0-0-0--|-0-0-0-0-0-0-0-0-0-0-0-0-0-0-0-0-0-0-|
|-0-0-0-0-0-0-0-0-0-0-0-0-0-0-0-0-0-0--|-0-0-0-0-0-0-0-0-0-0-0-0-0-0-0-0-0-0-|
|-1-1-1-1-1-1-1-1-1-1-1-1-1-1-1-1-1-1--|-1-1-1-1-1-1-1-1-1-1-1-1-1-1-1-1-1-1-|
|-2-2-2-2-2-2-2-2-2-2-2-2-2-2-2-2-2-2--|-2-2-2-2-2-2-2-2-2-2-2-2-2-2-2-2-2-2-|
|-2-2-2-2-2-2-2-2-2-2-2-2-2-2-2-2-2-2--|-2-2-2-2-2-2-2-2-2-2-2-2-2-2-2-2-2-2-|
|-0-0-0-0-0-0-0-0-0-0-0-0-0-0-0-0-0-0--|-0-0-0-0-0-0-0-0-0-0-0-0-0-0-0-0-0-0-|

GtrII 
|<----------2x------------------------>|<----------2x----------------------->|

|--------------------------------------|-------------------------------------|
|--------------------------------------|-------------------------------------|
|----------8-8-8-8-9-9-9-9-11-11-11-11-|---------8-8-8-8-9-9-9-9-11-11-11-11-|
|--7-7-7-7-x-x-x-x-x-x-x-x-x--x--x--x--|-2-2-2-2-x-x-x-x-x-x-x-x-x--x--x--x--|
|--x-x-x-x-6-6-6-6-7-7-7-7-9--9--9--9--|-2-2-2-2-6-6-6-6-7-7-7-7-9--9--9--9--|
|--5-5-5-5-----------------------------|-0-0-0-0-----------------------------|
 
 

|------------------------------------------|
|------------------------------------------|
|---------11-11-11-11-13-13-13-13-8-8-8-8--|
|-2-2-2-2-x--x--x--x--x--x--x--x--x-x-x-x--|
|-2-2-2-2-9--9--9--9--11-11-11-11-6-6-6-6--|
|-0-0-0-0----------------------------------|


|------------0~-|
|------------0~-| 
|------------2~-|
|------------2~-|
|------4-2---0~-|
|-2~-2-----4----|

do verse and chorus-

interlude-

GtrI
|-0~---0~-|---0~-----0~--------|  -------------------------------|
|-0~---0~-|---0~-----0~--------|  -------------------------------|
|-1~---1~-|---1~-----2~--------|  -------------------------------|
|-2~---2~-|---2~-----2~--------|2x-2-222222222222222222222222222-|
|-2~---2~-|---2~-----0~--------|  -2-222222222222222222222222222-|
|-0~---0~-|---0~---------------|  -0-000000000000000000000000000-|
                                     ************************
                              
GtrII
|--0~-0~-0~-0~-000000000000000~~~----------|
|--4~-5~-4~-0~-000000000000000~~~----------|
|-----------4~-----------------------------|
|------------------------------------------|4x
|------------------------------------------|
|------------------------------------------|

then-

|--0-0-0-4-4-4-4-4-4-4-4-4--|-0-0-0-4-4-4-4-4-4-4-4-4--|
|--0-0-0-4-4-7-4-4-4-7-5-5--|-0-0-0-4-4-7-4-4-4-7-5-5--|
|--1-1-1-4-4-4-4-4-4-4-4-4--|-1-1-1-4-4-4-4-4-4-4-4-4--|
|--2-2-2-6-6-6-6-6-6-6-6-6--|-2-2-2-6-6-6-6-6-6-6-6-6--|4x
|--2-2-2-4-4-4-4-4-4-4-4-4--|-2-2-2-4-4-4-4-4-4-4-4-4--|
|--0-0-0--------------------|-0-0-0--------------------|

Chorus - 3x
  
 
GtrI
|-0-0-0-0-0-0-0-0-0-0-0-0-0-0-0-0-0-0--|-0-0-0-0-0-0-0-0-0-0-0-0-0-0-0-0-0-0-|
|-0-0-0-0-0-0-0-0-0-0-0-0-0-0-0-0-0-0--|-0-0-0-0-0-0-0-0-0-0-0-0-0-0-0-0-0-0-|
|-2-2-2-2-2-2-2-2-2-2-2-2-2-2-2-2-2-2--|-2-2-2-2-2-2-2-2-2-2-2-2-2-2-2-2-2-2-|
|-2-2-2-2-2-2-2-2-2-2-2-2-2-2-2-2-2-2--|-2-2-2-2-2-2-2-2-2-2-2-2-2-2-2-2-2-2-|
|-0-0-0-0-0-0-0-0-0-0-0-0-0-0-0-0-0-0--|-0-0-0-0-0-0-0-0-0-0-0-0-0-0-0-0-0-0-|
|--------------------------------------|-------------------------------------|

|-0-0-0-0-0-0-0-0-0-0-0-0-0-0-0-0-0-0--|-0-0-0-0-0-0-0-0-0-0-0-0-0-0-0-0-0-0-|
|-0-0-0-0-0-0-0-0-0-0-0-0-0-0-0-0-0-0--|-0-0-0-0-0-0-0-0-0-0-0-0-0-0-0-0-0-0-|
|-1-1-1-1-1-1-1-1-1-1-1-1-1-1-1-1-1-1--|-1-1-1-1-1-1-1-1-1-1-1-1-1-1-1-1-1-1-|
|-2-2-2-2-2-2-2-2-2-2-2-2-2-2-2-2-2-2--|-2-2-2-2-2-2-2-2-2-2-2-2-2-2-2-2-2-2-|
|-2-2-2-2-2-2-2-2-2-2-2-2-2-2-2-2-2-2--|-2-2-2-2-2-2-2-2-2-2-2-2-2-2-2-2-2-2-|
|-0-0-0-0-0-0-0-0-0-0-0-0-0-0-0-0-0-0--|-0-0-0-0-0-0-0-0-0-0-0-0-0-0-0-0-0-0-|

GtrII 
|<----------2x------------------------>|<----------2x----------------------->|

|--------------------------------------|-------------------------------------|
|--------------------------------------|-------------------------------------|
|----------8-8-8-8-9-9-9-9-11-11-11-11-|---------8-8-8-8-9-9-9-9-11-11-11-11-|
|--7-7-7-7-x-x-x-x-x-x-x-x-x--x--x--x--|-2-2-2-2-x-x-x-x-x-x-x-x-x--x--x--x--|
|--x-x-x-x-6-6-6-6-7-7-7-7-9--9--9--9--|-2-2-2-2-6-6-6-6-7-7-7-7-9--9--9--9--|
|--5-5-5-5-----------------------------|-0-0-0-0-----------------------------|
 
 

|------------------------------------------|
|------------------------------------------|
|---------11-11-11-11-13-13-13-13-8-8-8-8--|
|-2-2-2-2-x--x--x--x--x--x--x--x--x-x-x-x--|
|-2-2-2-2-9--9--9--9--11-11-11-11-6-6-6-6--|
|-0-0-0-0----------------------------------|


then-
|------------0~-|
|------------0~-| 
|------------2~-|
|------------2~-|
|------4-2---0~-|
|-2~-2-----4----|

            
            
Suggest correction
Creating personal tab
Creating personal tab
You can edit any tab online and save it as your Personal.

You can edit, replace or remove any tab part or add personal notes – all changes will be seen only by you.

Personal tabs can be accessed anytime from any device, even offline.
Learn more »
comments
print report bad tab
8 comments total. Showing first comments. show 1 bad comment
+6 reply
Guitar4Girl 30 May 10, 2008 03:35 AM

Do you know what the strumming pattern is for the intro and verse bit? thanks

+7 reply
Band_Leader 10 Jul 03, 2008 03:19 PM

@turkey3202003:
...how long have you been reading tabs kid...

when someone indicates that a capo is placed on the guitar, all fret notations that follow are in relation to the capo's position... -1 on your comment...

guest
You may want to rate the tab now too:
select rating
Wanna post a correction for this tab? Suggest correction