Oops, an error
Loading. Please wait.

No Friend tab

version 1
version 1

Whole song

Interactive

328 views 60 this week
2 commentsread comments
1 2 3 4 5
1 last vote to show rating
add to favorites
×
Save as Personal and add changes to this tab that will be seen only by you. Learn more ›
×
You can save this tab as Personal to edit and correct it or add notes. All changes will be seen only by you. Learn more »
launch autoscroll
font size
0
reset
how to read this tab
guitar tuner
edit
Autoscroll
slow
fast
+/-
esc
set tempo
stop
(Gtr 1)

[Intro] (0:00)
e|--------------|
B|------6-8-----|
G|5-7-8---------|
D|--------------| (x14)
A|--------------|
E|--------------|

e|-----------------|
B|------6-8\1------|
G|5-7-8------------|
D|-----------------| 
A|-----------------|
E|-----------------|

(Gtr 1)
(0:15-2:30)
e|--------------|
B|------6-8-----|
G|5-7-8---------|
D|--------------| (x31)
A|--------------|
E|--------------|

e|---------------------|   
B|------6-8--9-8-6-----|
G|5-7-8------------8-7-|
D|---------------------| 
A|---------------------|
E|---------------------|

e|--------------|      e|-------------------------------------------|    
B|------6-8-----|      B|9-8-6------9-8-6------------6-8--------6-8-|
G|5-7-8---------|      G|------8-7--------8-7--5-7-8------5-7-8-----|
D|--------------| x3   D|-------------------------------------------|
A|--------------|      A|-------------------------------------------|
E|--------------|      E| ------------------------------------------|

e|----------|          e|--------------|
B|9-8-6-----|          B|------6-8-----|             
G|------8-7-|          G|5-7-8---------|
D|----------|          D|--------------|  x3
A|----------|          A|--------------|
E|----------|          E|--------------|

e|----------|          e|--------------|
B|9-8-6-----|          B|------6-8-----|             
G|------8-7-| x2       G|5-7-8---------|
D|----------|          D|--------------|  x18
A|----------|          A|--------------|
E|----------|          E|--------------|

e|----------|          e|--------------|
B|9-8-6-----|          B|------6-8-----|             
G|------8-7-|          G|5-7-8---------|
D|----------|   x8     D|--------------|  x8
A|----------|          A|--------------|
E|----------|          E|--------------|

e|----------|         
B|9-8-6-----|                     
G|------8-5-|          
D|----------|   (slowly fade out until about 2:30 where it stops)
A|----------|         
E|----------|          

(Gtr 2)
(starts at 0:15)
e|---------------------------------------------------------------------------|
B|---------------------------------------------------------------------------|
G|-----5~---5--------3~---3-----------8~----10p8--------8-----10-8-----------|  (x2)
D|6-6-----6---6--5-5----5---5--10-10----10-------10-10----10-----------------|
A|---------------------------------------------------------------------------|
E|---------------------------------------------------------------------------|

e|---------------------------------------------------------------------------|
B|---------------------------------------------------------------------------|
G|-----5~---5--------5p3~--3-----------8~----10p8-------10p8----10p8---------|  (x6)
D|6-6-----6---6--5-5-----5---5--10-10----10-------10-10------10--------------|
A|---------------------------------------------------------------------------|
E|---------------------------------------------------------------------------|

(Gtr 2)
[Outro]
e|---------------------|
B|-----------8---------|
G|------8------8-------|
D|10-10---10-----10----| (x11)
A|---------------------|
E|---------------------|

************************************

| p   Pull-off
| \   Slide down
| ~   Vibrato

************************************

            
            
Suggest correction
Creating personal tab
Creating personal tab
You can edit any tab online and save it as your Personal.

You can edit, replace or remove any tab part or add personal notes – all changes will be seen only by you.

Personal tabs can be accessed anytime from any device, even offline.
Learn more »
Give kudos to tab author, rate the tab!
1 2 3 4 5
comments
print report bad tab
2 comments total.
0 reply
how2beboss1 10 Oct 05, 2017 10:49 PM

I listen to this song whenever i'm feeling alone, and I play it because it helps me focus on something else, like music and how other people have problems too.

0 reply
amelia.lumme 226 Oct 07, 2017 03:29 PM

its a really powerful song, I'm glad you found this tab useful :)

guest
You may want to rate the tab now too:
select rating
Wanna post a correction for this tab? Suggest correction