Oops, an error
Loading. Please wait.
We have an official Now tab made by UG professional guitarists. Check out the tab »
×
4,676 views 3 this week
no commentswrite comment
1 2 3 4 5
1 last vote to show rating
add to favorites
×
Save as Personal and add changes to this tab that will be seen only by you. Learn more ›
×
You can save this tab as Personal to edit and correct it or add notes. All changes will be seen only by you. Learn more »
launch autoscroll
font size
0
reset
how to read this tab
guitar tuner
edit
Autoscroll
slow
fast
+/-
esc
set tempo
stop
-------------------------------------------------------------------------------
                             Paramore - Now
-------------------------------------------------------------------------------
Tabbed by: paramore8793
E-mail: sam_parawhore@hotmail.com

Tuning: Drop C#
                       d#|----|
                       a#|----|
                       f#|----|
                       C#|----|
                       G#|----|
                       C#|----|

This the Tab for Paramore's new song 'Now'. The lyrics are at the end of the tab.
Guitar Cover with tabs: http://www.youtube.com/watch?v=5uW5iIoExAE
Hope it helps(:


*INTRO & VERSE  **Don't try to take this from me...
d#|---------------------------------------------------------------------|
a#|---------------------------------------------------------------------|
f#|---------------------------------------------------------------------|
C#|--5/14-14(x5)--5/14-14(x5)-----5/10(x5)--5-5/10-10-12--10-(5)--------|
G#|--5/14-14(x5)--5/14-14(x5)-----5/10(x5)--5-5/10-10-12--10-(5)--------|
C#|--5/14-14(x5)--5/14-14(x5)-----5/10(x5)--5-5/10-10-12--10-(5)--------|


*BRIDGE Bend up the last note (listen to the song for it) **Lost the battle...
d#|---------------------------------------------------------------------|
a#|---------------------------------------------------------------------|
f#|--5(x16)/6(x16)/8-8-8-8/10(x24)--------------------------------------|
C#|---------------------------------------------------------------------|
G#|---------------------------------------------------------------------|
C#|---------------------------------------------------------------------|

d#|---------------------------------------------------------------------|
a#|--13(x16)/14(x16)/16(x4)/18(x24)-------------------------------------|
f#|---------------------------------------------------------------------|
C#|---------------------------------------------------------------------|
G#|---------------------------------------------------------------------|
C#|---------------------------------------------------------------------|


*CHORUS  **If there's a future we want it...
d#|---------------------------------------------------------------------|
a#|---------------------------------------------------------------------|
f#|---------------------------------------------------------------------|(x2)
C#|--10(x16)----7(x16)---10(x16)---7(x8)-----3(x8)----------------------|
G#|--10(x16)----7(x16)---10(x16)---7(x8)-----3(x8)----------------------|
C#|--10(x16)----7(x16)---10(x16)---7(x8)-----3(x8)----------------------|


*INTRO & VERSE  **Don't try to take this from me...
d#|---------------------------------------------------------------------|
a#|---------------------------------------------------------------------|
f#|---------------------------------------------------------------------|
C#|--5/14-14(x5)--5/14-14(x5)-----5/10(x5)--5-5/10-10-12--10-(5)--------|
G#|--5/14-14(x5)--5/14-14(x5)-----5/10(x5)--5-5/10-10-12--10-(5)--------|
C#|--5/14-14(x5)--5/14-14(x5)-----5/10(x5)--5-5/10-10-12--10-(5)--------|


*BRIDGE Bend up the last note (listen to the song for it) **Lost the battle...
d#|---------------------------------------------------------------------|
a#|---------------------------------------------------------------------|
f#|--5(x16)/6(x16)/8-8-8-8/10(x24)--------------------------------------|
C#|---------------------------------------------------------------------|
G#|---------------------------------------------------------------------|
C#|---------------------------------------------------------------------|

d#|---------------------------------------------------------------------|
a#|--13(x16)/14(x16)/16(x4)/18(x24)-------------------------------------|
f#|---------------------------------------------------------------------|
C#|---------------------------------------------------------------------|
G#|---------------------------------------------------------------------|
C#|---------------------------------------------------------------------|


*CHORUS  **If there's a future we want it...
d#|---------------------------------------------------------------------|
a#|---------------------------------------------------------------------|
f#|---------------------------------------------------------------------|(x2)
C#|--10(x16)----7(x16)---10(x16)---7(x8)-----3(x8)----------------------|
G#|--10(x16)----7(x16)---10(x16)---7(x8)-----3(x8)----------------------|
C#|--10(x16)----7(x16)---10(x16)---7(x8)-----3(x8)----------------------|


*BRIDGE2  **There's a time and a place to die...
d#|-----------11--13-------------11--13-(14br13)------------------------|
a#|---11--14-------------11--14-----------------------------------------|
f#|---------------------------------------------------------------------|
C#|---------------------------------------------------------------------|
G#|---------------------------------------------------------------------|
C#|---------------------------------------------------------------------|

d#|-----------11---------------11~--------------------------------------|
a#|--11--14--------14-13--14--------------------------------------------|
f#|---------------------------------------------------------------------|
C#|---------------------------------------------------------------------|
G#|---------------------------------------------------------------------|
C#|---------------------------------------------------------------------|

d#|-----------11--13-------------11--13-(14br13)------------------------|
a#|---11--14-------------11--14-----------------------------------------|
f#|---------------------------------------------------------------------|
C#|---------------------------------------------------------------------|
G#|---------------------------------------------------------------------|
C#|---------------------------------------------------------------------|

d#|------------11---------------13~-------------------------------------|
a#|---11--14--------14--13--14------------------------------------------|
f#|---------------------------------------------------------------------|
C#|---------------------------------------------------------------------|
G#|---------------------------------------------------------------------|
C#|---------------------------------------------------------------------|


*BREAKING DOWN? Bend up last note a lil' bit before last chorus
d#|---------------------------------------------------------------------|
a#|---------------------------------------------------------------------|
f#|--5~--6~---8/10~-----------------------------------------------------|
C#|--x---x----x/x----(x2)-----------------------------------------------|
G#|--3~--4~---6/8~------------------------------------------------------|
C#|---------------------------------------------------------------------|


*LAST CHORUS  **If there's a future we want it...
d#|---------------------------------------------------------------------|
a#|---------------------------------------------------------------------|
f#|---------------------------------------------------------------------|(x2)
C#|--10(x16)----7(x16)---10(x16)---7(x8)-----3(x8)----------------------|
G#|--10(x16)----7(x16)---10(x16)---7(x8)-----3(x8)----------------------|
C#|--10(x16)----7(x16)---10(x16)---7(x8)-----3(x8)----------------------|

d#|---------------------------------------------------------------------|
a#|---------------------------------------------------------------------|
f#|---------------------------------------------------------------------|
C#|-----7(x8)----3(x8)----7(x8)-----3(x8)----7-7-7-7/3-3-3-3------------|
G#|-----7(x8)----3(x8)----7(x8)-----3(x8)----7-7-7-7/3-3-3-3------------|
C#|-----7(x8)----3(x8)----7(x8)-----3(x8)----7-7-7-7/3-3-3-3------------| 

*Lyrics*
Don't try to take this from me
Don't try to take this from me
Now ow ow ow ow ow ow owww

*VERSE
Feels like I'm waking from the dead
and everyone's been waiting on me
At least now I never have to wonder
what it's like to sleep a year away.

But we were indestructible,
I thought we could brave it all...
I never thought what could take me out was hiding down below

*PRE-CHORUS
Lost the battle...win the war
Bringing my sinking ship back to the shore
Starting over..head back in!
There's a time and a place to die but this ain't it!

*CHORUS
If there's a future we want it
Now ow ow ow ow ow ow owww
If there's a future we want it
Now ow ow ow ow ow ow owww

Don't try to take this from me
Don't try to take this from me
Now ow ow ow ow ow ow owww

*VERSE
Wish I could find a crystal ball for the days I feel completely worthless
You know I'd use it all for good, I would not take it for granted!
Inside a house of memories for the days I don't feel anything
At least they'll remember not to make the same mistakes again

*PRE-CHORUS
Lost the battle... win the war
Bringing my sinking ship back to the shore
Starting over...head back in!
There's a time and a place to die but this ain't it!
If there's a future we want it
Now ow ow ow ow ow ow owww

*CHORUS
If there's a future we want it
Now ow ow ow ow ow ow owww
If there's a future we want it
Now ow ow ow ow ow ow owww
If there's a future we want it
Now ow ow ow ow ow ow owww

*BREAKING DOWN?
There's a time and a place to die..
There's a time and a place to die.. and this ain't it!
There's a time and a place to die.. and this ain't it!

THIS AIN'T IT! THIS AIN'T IT!
There's a time and a place to die..
There's a time and a place to die.. and this ain't it!

*LAST CHORUS
If there's a future we want it
Now ow ow ow ow ow ow owww
If there's a future we want it
Now ow ow ow ow ow ow owww
If there's a future we want it
Now ow ow ow ow ow ow owww

If there's a future we want it

Now ow ow ow ow ow ow owww

Now ow ow ow ow ow ow owww

Now ow ow ow ow ow ow owww 


Thanks for watching my tab, Have fun!

************************************

| /   slide up
| \   slide down
| h   hammer-on
| p   pull-off
| ~   vibrato
| +   harmonic
| x   Mute note
| b   Bend
| pb  Pre-bend
| br  Bend release
| pbr Pre-bend release
| brb Bend release bend

************************************

            
            
Suggest correction
Creating personal tab
Creating personal tab
You can edit any tab online and save it as your Personal.

You can edit, replace or remove any tab part or add personal notes – all changes will be seen only by you.

Personal tabs can be accessed anytime from any device, even offline.
Learn more »
Give kudos to tab author, rate the tab!
1 2 3 4 5
comments
print report bad tab
guest
You may want to rate the tab now too:
select rating
Wanna post a correction for this tab? Suggest correction