Oops, an error
Loading. Please wait.

Part Ii bass

version 1
version 1

Whole song

Interactive

662 views 6 this week
1 commentread comment
1 2 3 4 5
2 more votes to show rating
add to favorites
×
Save as Personal and add changes to this tab that will be seen only by you. Learn more ›
×
You can save this tab as Personal to edit and correct it or add notes. All changes will be seen only by you. Learn more »
launch autoscroll
font size
0
reset
guitar tuner
edit
Autoscroll
slow
fast
+/-
esc
set tempo
stop
TUNING: DADG (Drop D)

I noticed that a Part II bass tab or YouTube Cover hasn't been 
posted so I decided to upload this tab. It has been exported from 
Guitar Pro. Sorry if these tabs look a bit funny because this is 
my first tab. If there is any mistakes; please comment! Enjoy!


******************************************************************
| /   slide up
| \   slide down
| h   hammer-on
| p   pull-off
******************************************************************

[INTRO] [Bass starts at 0:12]

 (0:00 - 0:12)
G|---REST-----|--------|--------|--------|---REST-----|
D|---FOR------|--------|--------|--------|---FOR------|
A|---EIGHT----|--------|--------|--------|---TWO------|
D|---MEASURES-|---10---|8----3--|8-----8-|---MEASURES-|

G|-------------------------|--------------------------|
D|-------------------------|--------------------------|
A|-------------------------|--------------------------|
D|--10---7---10---7---10---|-10---8-----8-------------|

G|---------------------|----------------------|
D|---------------------|----------------------|
A|---------------------|----------------------|
D|-5--------5----------|-10-------10--3----3--|


[VERSE 1] (FYI: This is where the lyrics start)

G|------------------------|---------------------|----------------|
D|------------------------|---------------------|----------------|
A|------------------------|---------------------|----------------|
D|-10-------10--3----3----|-8--------8----------|-8--------8-----|

G|---------------------|---------------------|-------------------|
D|---------------------|---------------------|-------------------|
A|---------------------|---------------------|-------------------|
D|-8--------8----------|-10-------10---------|-8--------8--------|

G|-------------------|------------------|------------------------|
D|-------------------|------------------|------------------------|
A|-------------------|------------------|------------------------|
D|-8--------8--------|-5--------5-------|--10-------10--3----3---|

G|---------------------|---------------------|-------------------|
D|---------------------|---------------------|-------------------|
A|---------------------|---------------------|-------------------|
D|-8--------8----------|-8--------8----------|-8--------8--------|

G|---------------------|---------------------|-------------------|
D|---------------------|---------------------|-------------------|
A|------8---10----10---|---------------------|-------------------|
D|-10------------------|-8--------8----------|-8--------8--------|

G|----------------|----------------------|
D|----------------|----------------------|
A|----------------|----------------------|
D|-5--------5-----|-10-----10--3----3----|


[PRE-CHORUS 1] (the slide is when she says," find me...")

G|-(Oh glory)-|-(Oh glory)-|----------|----------|
D|------------|------------|----------|----------|
A|--8---------|--8---------|----------|----------|
D|--8---------|--8---------|--8-------|--8-------|

G|-(Oh glory)-|-(Oh glory)-|----------|
D|------------|------------|----------|
A|--8---------|--8---------|----------|
D|--8---------|--8---------|-8----8\--|


[CHORUS 1]

G|-------------------|-----------------------|-------------------|
D|-------------------|-----------------------|-------------------|
A|-------------------|-----------------------|-------------------|
D|-0-----0----0------|-0---0------0----0-----|-3-----3----3------|

G|---------------------|--------------------|--------------------|
D|---------------------|--------------------|--------------------|
A|---------------------|--------------------|--------------------|
D|--3---3------3----3--|--8--------8----8---|--8---8-----8----8--|

G|---------------------|------------------|----------------------|
D|---------------------|------------------|----------------------|
A|---------------------|------------------|----------------------|
D|--5-------5----5-----|--5-----5----5----|--0--------0----0-----|

G|-----------------------|---------------------|-----------------|
D|-----------------------|---------------------|-----------------|
A|-----------------------|---------------------|-----------------|
D|--0---0-------0----0---|--3--------3----3----|--3------3----3--|

G|-------------------|---------------------|---------------------|
D|-------------------|---------------------|---------------------|
A|-------------------|---------------------|---------------------|
D|--3-------3----3---|--10------10---10----|--10------10---10----|

G|-------------------|-----------------------|
D|-------------------|-----------------------|
A|-------------------|-----------------------|
D|--8-------8---8----|--8----8------8---8----|


[PRE-VERSE]
                    
G|-R----|---------|-R----|----------------------------|
D|--E---|---------|--E---|----------------------------|
A|---S--|---------|---S--|----------------------------|
D|----T-|--8---8--|----T-|--10--10------10--10---10---|

G|-----------------------|
D|-----------------------|
A|-----------------------|
D|--8---8-------8---8----|


[VERSE 2] (Starts after the three measure rest)

G|--REST-----|--------------------|-R----|--------------|
D|--FOR------|--------------------|--E---|--------------|
A|--THREE----|--------------------|---S--|--------------|
D|--MEASURES-|-----8--------8-----|----T-|-8--------8---|
                                              
G|-------------------------|---------------|-R----|--------------|
D|-------------------------|---------------|--E---|--------------|
A|-------10-------10-------|---------------|---S--|--------------|
D|--10-------10-------10---|-8--------8----|----T-|--5-------5---|

G|---------------------------------|-----------------------------|
D|---------------------------------|-----------------------------|
A|---------------------------------|-----------------------------|
D|-10--10--10--10--3---3---3---3---|-8--------8---8---8------8---|

G|-------------------------------|-------------------------------|
D|-------------------------------|-------------------------------|
A|---------------------------(x2)|-------------------------------|
D|-8---8------8---8---8-----8----|-10--10-----10--10--10-----10--|

G|------------------------------------|------------------|
D|------------------------------------|------------------|
A|--------------------------------(x2)|------------------|
D|--8---8-------8---8---8-------8-----|--5--------5------|

G|---------------------------|
D|---------------------------|
A|---------------------------|
D|-10-------10--3--------3---|

[PRE-CHORUS 2]

G|--(Oh glory)|--------|
D|------------|--------|
A|-8----------|--------|
D|-8----------|-8------|


[CHORUS 2]

G|-R----|-------------------|------------------------|
D|--E---|-------------------|------------------------|
A|---S--|-------------------|------------------------|
D|----T-|-0--------0----0---|-0---0-------0----0-----|

G|-------------------|----------------------|--------------------|
D|-------------------|----------------------|--------------------|
A|-------------------|----------------------|--------------------|
D|-3--------3----3---|-3---3-------3----3---|--8------8----8-----|

G|------------------------|--------------------|-----------------|
D|------------------------|--------------------|-----------------|
A|------------------------|--------------------|-----------------|
D|-8---8-------8----8-----|-5--------5----5----|-5-----5----5----|

G|---------------------|------------------------|
D|---------------------|------------------------|
A|---------------------|------------------------|
D|-0--------0----0-----|-0---0-------0----0-----|

G|---------------------|--------------------|--------------------|
D|---------------------|--------------------|--------------------|
A|---------------------|--------------------|--------------------|
D|-3--------3----3-----|-3-------3----3-----|-10-------10---10---|

G|---------------------|------------------|---------------------|
D|---------------------|------------------|---------------------|
A|---------------------|------------------|---------------------|
D|-10-------10---10----|-8-----8-----8----|-8----8----8----8----|

G|--------|--------|
D|--------|--------|
A|--------|--------|
D|-8------|-8------|


[BRIDGE PART 1] (Bass starts after the sixteen measure rest)

G|---REST-----|---------------------|-R----|---------------------|
D|---FOR------|---------------------|--E---|---------------------|
A|---SIXTEEN--|-5--------5----5-----|---S--|---------------------|
D|---MEASURES-|-0--------0----0-----|----T-|-10-------10---10----|

                                 (Slide or Hammer-on ↷)
G|-R----|----------------|-R----|------------------|-------------|
D|--E---|----------------|--E---|------------------|-------------|
A|---S--|----------------|---S--|------------------|-------------|
D|----T-|-8------8----8--|----T-|-5--------5----5--|--5p3h5p3h5--|

G|-----------------------|-R----|-----------------------------|
D|-----------------------|--E---|---------------10-----10-----|
A|-5--------5----5-------|---S--|-----------------------------|
D|-0--------0----0-------|----T-|-10-------10---10-----10-----|

G|-----------------------|-R----|--------------|
D|-----------------------|--E---|--------------|
A|-----------------------|---S--|--------------|
D|-8--------8----8-------|----T-|-5----5(x13)--|

[BRIDGE PART 2]
G|---------------|-----------------------------|
D|---------------|-----------------------------|
A|---------------|-----------------10/12--12---|(x1)
D|-0---0-0-0-0-0-|-0---0---0---0---------------|

G|--------|------------------------|--------|-----------------|
D|--------|------------------------|--------|-----------------|
A|--------|----------------10-12---|--------|-----------------|
D|--10(x8)|-10--10--10--10---------|-8(x16)-|-5---5-5-5-5-5-5-|

G|---------------------|---------|----------------------------|
D|---------------------|---------|----------------------------|
A|-----------8---7-----|--5(x6)--|-5---5---5---5---10/12--12--| x3
D|--5-(x5)----------5--|--0(x6)--|-0---0---0---0--------------|

G|---------|---------------------------|--------|
D|---------|---------------------------|--------|
A|---------|-----------------10---12---|--------|
D|--10(x8)-|-10--10--10--10------------|-8(x16)-|

G|-----------------|---------------------------------|
D|-----------------|---------------------------------|
A|-----------------|---------------------8---7-------|
D|-5---5-5-5-5-5-5-|-5---5---5---5---5-----------5---|


[OUTRO] ("Like the moon...")
                                    
G|--------------------|-R----|--------------------|-R----|
D|--------------------|--E---|--------------------|--E---|
A|--------------------|---S--|--------------------|---S--|
D|-8--------8-----8---|----T-|-8--------8-----8---|----T-|

G|--------------------|-R----|--------------------|-R----|
D|--------------------|--E---|--------------------|--E---|
A|--------------------|---S--|--------------------|---S--|
D|-5--------5-----5---|----T-|-5--------5-----5---|----T-|

G|--------------------|-R----|--------------------|-R----|
D|--------------------|--E---|--------------------|--E---|
A|--------------------|---S--|--------------------|---S--|
D|-8--------8-----8---|----T-|-8--------8-----8---|----T-|

G|--------------------|-R----|--------------------|-R----|
D|--------------------|--E---|--------------------|--E---|
A|--------------------|---S--|--------------------|---S--|
D|-8--------8-----8---|----T-|-5--------5-----5---|----T-|

G|--------------------|---REST------|
D|--------------------|---FOR-------|
A|--------------------|---THREE-----|
D|-5--------5-----5---|---MEASURES--|
                
                      END
******************************************************************

            
            
Suggest correction
Creating personal tab
Creating personal tab
You can edit any tab online and save it as your Personal.

You can edit, replace or remove any tab part or add personal notes – all changes will be seen only by you.

Personal tabs can be accessed anytime from any device, even offline.
Learn more »
Give kudos to tab author, rate the tab!
1 2 3 4 5
comments
print report bad tab
1 comment total.
+1 reply
random.nate01 102 Jun 07, 2016 12:32 PM

Thank y'all so much!!!!

guest
You may want to rate the tab now too:
select rating
Wanna post a correction for this tab? Suggest correction