Oops, an error
Loading. Please wait.
59,373 views 1 this week
7 commentsread comments
1 2 3 4 5
x 15
add to favorites
×
Save as Personal and add changes to this tab that will be seen only by you. Learn more ›
×
You can save this tab as Personal to edit and correct it or add notes. All changes will be seen only by you. Learn more »
launch autoscroll
font size
0
reset
how to read this tab
guitar tuner
backing track
0:00
0:00
edit
Autoscroll
slow
fast
+/-
esc
set tempo
stop
-------------------------------------------------------------------------------
                             Pressure - Paramore
-------------------------------------------------------------------------------
Tuning:DADGBE

/-slide
*-palm mute

i only decided to put up guitar 1 part
cause i was not quite sure about the second guitar
but this tab is easy
and its an amazing song
hope you like!

Guitar 2   Distortion all the way
========
Intro  (00:00) 
E|-------------------------------------|
B|-------------------------------------|
G|-------------------------------------|
D|-999999-555555-000000-444444---------| x2
A|-999999-555555-000000-444444---------|
D|-999999-555555-000000-444444---------|

Verse   (00:12)
e|---------------------------------------|
B|---------------------------------------|
G|---------------------------------------|
D|-999---9/555---5/---000---0\---444—4\--|
A|-999---9/555---5/---000---0\---444—4\--| X2
D|-999---9/555---5/---000---0\---444—4\--|
   ***     ***        ***        ***

Pre Chorus   (00:24)
e|------------------------------------------|
B|------------------------------------------|
G|------------------------------------------|
D|-9-9-9-99--5-5-5-55--0-0-0-00--4-4-4-44---| X2
A|-9-9-9-99--5-5-5-55--0-0-0-00--4-4-4-44---|
D|-9-9-9-99--5-5-5-55--0-0-0-00--4-4-4-44---|

Chorus     (00:36)
e|-------------------------------------------------------------|
B|-------------------------------------------------------------|
G|--------------------------11b12r11---------------------------|
D|-77777777777777777777777--x--x--x-77777777777777777777777777-| X2
A|-55555500000044444455555—-9b10r-9-55555500000044444455555555-|
D|-55555500000044444455555----------55555500000044444455555555-|
                         **
Verse(00:59) 
e|---------------------------------------|
B|---------------------------------------|
G|---------------------------------------|
D|-999---9/555---5/---000---0\---444—4\--| x2
A|-999---9/555---5/---000---0\---444—4\--| 
D|-999---9/555---5/---000---0\---444—4\--|
   ***     ***        ***        ***


Pre Chorus   (01:11)
e|------------------------------------------|
B|------------------------------------------|
G|------------------------------------------|
D|-9-9-9-99--5-5-5-55--0-0-0-00--4-4-4-44---| X2
A|-9-9-9-99--5-5-5-55--0-0-0-00--4-4-4-44---|
D|-9-9-9-99--5-5-5-55--0-0-0-00--4-4-4-44---|







Chorus     (01:23)
e|-------------------------------------------------------------|
B|-------------------------------------------------------------|
G|--------------------------11b12r11---------------------------|
D|-77777777777777777777777--x--x--x-77777777777777777777777777-| X2
A|-55555500000044444455555—-9b10r-9-55555500000044444455555555-|
D|-55555500000044444455555----------55555500000044444455555555-|
                         **

Interlude  (01:47) 
E|-------------------------------------|
B|-------------------------------------|
G|-------------------------------------|
D|-999999-555555-000000-444444---------| x3
A|-999999-555555-000000-444444---------|
D|-999999-555555-000000-444444---------|


Bridge   (02:04)
e|---------------------------------------|
B|---------------------------------------|
G|---------------------------------------|
D|-9-9-9-9/-5-5-5-5/-0-0-0-0\-4-4-4-4\---| X2
A|-9-9-9-9/-5-5-5-5/-0-0-0-0\-4-4-4-4\---|
D|-9-9-9-9/-5-5-5-5/-0-0-0-0\-4-4-4-4\---|

Chorus    (02:31)
e|-------------------------------------------------------|
B|----------------------------------------------------B--|
G|----------------------------------------------------R--|
D|-77777777777777777777777777777777777777777777777777-E--|
A|-55555500000044444455555555555555000000444444555555-A--|
D|-55555500000044444455555555555555000000444444555555-K--|

 (02:43)                                   End on
e|-----------------------------------|    |------|
B|-----------------------------------|    |------|
G|--------------------------11b12r11-|    |------|
D|-777777777777777777777777--x--x--x-| X2 |---7~-| 
A|-555555000000444444555555—-9b10r-9-|    |---0~-|
D|-555555000000444444555555----------|    |---0~-|
                         **


            
            
Suggest correction
Creating personal tab
Creating personal tab
You can edit any tab online and save it as your Personal.

You can edit, replace or remove any tab part or add personal notes – all changes will be seen only by you.

Personal tabs can be accessed anytime from any device, even offline.
Learn more »
comments
print report bad tab
7 comments total. Showing first comments.
0 reply
mushroom2 10 May 16, 2007 11:31 AM

this song has been tabbed to death

btw good work with the chorus :D

0 reply
hennebry 10 Jan 03, 2008 03:07 PM

I only gave 4 starts because u didnt get the first guitar part but thats okay u owned the second. I didnt agree with the
intro 100% but it was done pretty good

Agreed good choruses/

0 reply
nksoloman5000 10 Mar 07, 2008 02:29 PM

`where the hell is the clean part

guest
You may want to rate the tab now too:
select rating
Wanna post a correction for this tab? Suggest correction