Oops, an error
Loading. Please wait.

Proof bass

6,074 views 9 this week
3 commentsread comments
1 2 3 4 5
x 6
add to favorites
×
Save as Personal and add changes to this tab that will be seen only by you. Learn more ›
×
You can save this tab as Personal to edit and correct it or add notes. All changes will be seen only by you. Learn more »
launch autoscroll
font size
0
reset
guitar tuner
edit
Autoscroll
slow
fast
+/-
esc
set tempo
stop
Okay so I retabbed the song. Should be a lot better now.

Credit for the fills in verse 2 goes to spencer.beberma

Special thanks to Teh D Bot spencer.beberma for the fills in the bridge. ^^

0:21 Verse
F#|-----------------------------------------------------------------|
C#|-----------------------------------------------------------------|
G#|---------------------------------------------2---4-4-4-4-4-4-2---|
C#|-2-2-2-2-2-2-2-2-2-2-2-2-4-------6-6-6-6-6-----------------------|
    1 + 2 + 3 + 4 + 1 + 2 + 3 + 4 + 1 + 2 + 3 + 4 + 1 + 2 + 3 + 4 +

F#|-----------------------------------------------------------------|
C#|-----------------------------------------------------------------|
G#|---------------------------------------------------------2-------|
C#|-2-2-2-2-2-2-2-2-2-2-2-2-4-------6---------------4---------------|
    1 + 2 + 3 + 4 + 1 + 2 + 3 + 4 + 1 + 2 + 3 + 4 + 1 + 2 + 3 + 4 +

F#|-------------------------------------------------------------------|
C#|o-----------------------------------------------------------------o|
G#|o---------------------------------------------2---4-4-4-4-4-4-2---o|
C#|--2-2-2-2-2-2-2-2-2-2-2-2-4-------6-6-6-6-6------------------------|x2
     1 + 2 + 3 + 4 + 1 + 2 + 3 + 4 + 1 + 2 + 3 + 4 + 1 + 2 + 3 + 4 +

F#|-----------------------------------------------------------------|
C#|-2-2-2-2-2-2-2-2-2-2-2-2-4-------6-6-6-6-6-----------------------|
G#|---------------------------------------------2---4-4-4-4-4-4-2---|
C#|-----------------------------------------------------------------|
    1 + 2 + 3 + 4 + 1 + 2 + 3 + 4 + 1 + 2 + 3 + 4 + 1 + 2 + 3 + 4 +

F#|-----------------------------------------------------------------|
C#|-----------------------------------------------------------------|
G#|-----------------------------4-----------------------------------|
C#|-2-2-2-2-2-2-2-2-2-2-2-2-4---------------------------------------|
    1 + 2 + 3 + 4 + 1 + 2 + 3 + 4 + 1 + 2 + 3 + 4 + 1 + 2 + 3 + 4 +

0:49 Chorus
F#|-----------------------------------------------------------------|
C#|-----------------------------------------------------------------|
G#|-0-0-0-0-0-0-0-0-2-2-2-2-2-2-2-2---------------------------------|
C#|---------------------------------2-2-2-2-2-2-2-2-2-2-2-2-2-2-2-2-|
    1 + 2 + 3 + 4 + 1 + 2 + 3 + 4 + 1 + 2 + 3 + 4 + 1 + 2 + 3 + 4 +

F#|-----------------------------------------------------------------|
C#|---------------------------------4-2-----------------------------|
G#|-0-0-0-0-0-0-0-0-2-2-2-2-2---2-4-------4---4-4-4-4-4-4-4-4-4-4-4-|
C#|-----------------------------------------------------------------|
    1 + 2 + 3 + 4 + 1 + 2 + 3 + 4 + 1 + 2 + 3 + 4 + 1 + 2 + 3 + 4 +

F#|-----------------------------------------------------------------|
C#|-----------------------------------------------------------------|
G#|-0-0-0-0-0-0-0-0-2-2-2-2-2-2-2-2-4-4-----6-6-----7-7-----2-2-----|
C#|-----------------------------------------------------------------|
    1 + 2 + 3 + 4 + 1 + 2 + 3 + 4 + 1 + 2 + 3 + 4 + 1 + 2 + 3 + 4 +

F#|-----------------------------------------------------------------|
C#|-----------------------------------------------------------------|
G#|-0-0-0-0-0-0-0-0-2-2-2-2-2-2-2-2---------------------------------|
C#|---------------------------------2-------------------------------|
    1 + 2 + 3 + 4 + 1 + 2 + 3 + 4 + 1 + 2 + 3 + 4 + 1 + 2 + 3 + 4 +

F#|---------------------------------|
C#|---------------------------------|
G#|-----------------------------14\-|
C#|---------------------------------|
    1 + 2 + 3 + 4 + 1 + 2 + 3 + 4 +

1:09 Verse
F#|-----------------------------------------------------------------|
C#|---------4-2-----4-6-----2---4-----------------------------------|
G#|---------------------------------------------2---4-4-4-4-4-4-2---|
C#|-2---2---------------------------6-6-6-6-6-----------------------|
    1 + 2 + 3 + 4 + 1 + 2 + 3 + 4 + 1 + 2 + 3 + 4 + 1 + 2 + 3 + 4 +

F#|-----------------------------------------------------------------|
C#|-----------------2-2-2-2-4-4-4-4---------------------------------|
G#|---------------------------------------------2---4-4-4-4-4-4-2---|
C#|-2-2-2-2-2-2-2-2-----------------6-6-6-6-6-----------------------|
    1 + 2 + 3 + 4 + 1 + 2 + 3 + 4 + 1 + 2 + 3 + 4 + 1 + 2 + 3 + 4 +

F#|-----------------------------------------------------------------|
C#|---------4-2-----4-6-----2---4-----------------------------------|
G#|---------------------------------------------2---4-4-4-4-4-2-----|
C#|-2---2---------------------------6-6-6-6-6-------------------6-4-|
    1 + 2 + 3 + 4 + 1 + 2 + 3 + 4 + 1 + 2 + 3 + 4 + 1 + 2 + 3 + 4 +

F#|-----------------------------------------------------------------|
C#|-----------------2-4-6---6-4-------------------------------------|
G#|-----------------------------6-----------------------------------|
C#|-2-2-2-2-2-2-2-2-----------------6-6-6-6-6-6-6-6/16------14--\---|
    1 + 2 + 3 + 4 + 1 + 2 + 3 + 4 + 1 + 2 + 3 + 4 + 1 + 2 + 3 + 4 +

F#|-----------------------------------------------------------------|
C#|-----------------------------------------------------------------|
G#|---------------------------------------------2---4-4-4-4-4-4-2---|
C#|-2-2-2-2-2-2-2-2-2-2-2-2-4-------6-6-6-6-6-----------------------|
    1 + 2 + 3 + 4 + 1 + 2 + 3 + 4 + 1 + 2 + 3 + 4 + 1 + 2 + 3 + 4 +

F#|-----------------------------------------------------------------|
C#|-----------------------------------------------------------------|
G#|---------------------------------------------2---4-4-4-4-4-2-----|
C#|-2-2-2-2-2-2-2-2-2-2-2-2-4-------6-6-6-6-6-------------------6-4-|
    1 + 2 + 3 + 4 + 1 + 2 + 3 + 4 + 1 + 2 + 3 + 4 + 1 + 2 + 3 + 4 +

F#|-----------------------------------------------------------------|
C#|-------------------------------------------------------2---------|
G#|---------------------------------------------2---4-4-4---4-2-0---|
C#|-2-2-2-2-2-2-2-2-2-2-2-2-4-------6-6-6-6-6-----------------------|
    1 + 2 + 3 + 4 + 1 + 2 + 3 + 4 + 1 + 2 + 3 + 4 + 1 + 2 + 3 + 4 +

F#|-----------------------------------------------------------------|
C#|-----------------------------------------------------------------|
G#|-----------------------------4-----------------------------------|
C#|-2-2-2-2-2-2-2-2-2-2-2-2-4---------------------------------------|
    1 + 2 + 3 + 4 + 1 + 2 + 3 + 4 + 1 + 2 + 3 + 4 + 1 + 2 + 3 + 4 +

1:44 Chorus
F#|-----------------------------------------------------------------|
C#|-----------------------------------------------------------------|
G#|-0-0-0-0-0-0-0-0-2-2-2-2-2-2-2-2---------------------------------|
C#|---------------------------------2-2-2-2-2-2-2-2-2-2-2-2-2-2-2-2-|
    1 + 2 + 3 + 4 + 1 + 2 + 3 + 4 + 1 + 2 + 3 + 4 + 1 + 2 + 3 + 4 +

F#|-----------------------------------------------------------------|
C#|---------------------------------------------2---2-4-6---6-4-----|
G#|-0-0-0-0-0-0-0-0-2-2-2-2-2-4-2---4-4-4-4-2-4---4-------------6-4-|
C#|-----------------------------------------------------------------|
    1 + 2 + 3 + 4 + 1 + 2 + 3 + 4 + 1 + 2 + 3 + 4 + 1 + 2 + 3 + 4 +

F#|-----------------------------------------------------------------|
C#|-----------------------------------------------------------------|
G#|-0-0-0-0-0-0-0-0-2-2-2-2-2-2-2-2-4-4-----6-6-----7-7-----2-2-----|
C#|-----------------------------------------------------------------|
    1 + 2 + 3 + 4 + 1 + 2 + 3 + 4 + 1 + 2 + 3 + 4 + 1 + 2 + 3 + 4 +

F#|-----------------------------------------------------------------|
C#|-----------------------------------------------------------------|
G#|-0-0-0-0-0-0-0-0-2-2-2-2-2-2-2-2---------------------------------|
C#|---------------------------------2-------------------------------|
    1 + 2 + 3 + 4 + 1 + 2 + 3 + 4 + 1 + 2 + 3 + 4 + 1 + 2 + 3 + 4 +

Rest

2:08 Fills
F#|---9---9-11--13-11-13-9-|
C#|-9---9------------------|
G#|------------------------|
C#|------------------------|

2:12
F#|-------------------------|
C#|----9-----9--------------|
G#|-11----11----9--9--11-7\-|
C#|-------------------------|

Bridge 2:17
F#|-----------------|
C#|-----------------|
G#|-----------------|
C#|--/11\\---/11\\--|
    1 + 2 + 3 + 4 +

F#|-----------------------------------------------------------------|
C#|-2---2-2-2---2-2-2---2-2-2---2-2---------------------------------|
G#|---------------------------------4---4-4-4---4-4-2---2-2-2---2-2-|
C#|-----------------------------------------------------------------|
    1 + 2 + 3 + 4 + 1 + 2 + 3 + 4 + 1 + 2 + 3 + 4 + 1 + 2 + 3 + 4 +

F#|-----------------------------------------------------------------|
C#|-----------------------------------------------------2---2-4-2---|
G#|-0---0-0-0---0-0-0---0-0-0---0-0-4---4-4-4---4-4-2-4---4-------4-|
C#|-----------------------------------------------------------------|
    1 + 2 + 3 + 4 + 1 + 2 + 3 + 4 + 1 + 2 + 3 + 4 + 1 + 2 + 3 + 4 +

F#|-----------------------------------------------------------------|
C#|-2---2-2-2---2-2-2---2-2-2---2-2---------------------------------|
G#|---------------------------------4---4-4-4---4-4-2---2-2-2---2-2-|
C#|-----------------------------------------------------------------|
    1 + 2 + 3 + 4 + 1 + 2 + 3 + 4 + 1 + 2 + 3 + 4 + 1 + 2 + 3 + 4 +

F#|-----------------------------------------------------------------|
C#|-----------------------------------------------------------------|
G#|-0---0-0-0---0-0-0---0-0-0---0-0-4---4-4-4---4-4-2---2-2-2---2-2-|
C#|-----------------------------------------------------------------|
    1 + 2 + 3 + 4 + 1 + 2 + 3 + 4 + 1 + 2 + 3 + 4 + 1 + 2 + 3 + 4 +

Rest

2:37 Chorus
F#|-----------------------------------------------------------------|
C#|-----------------------------------------------------------------|
G#|-0-0-0-0-0-0-0-0-2-2-2-2-2-2-2-2---------------------------------|
C#|---------------------------------2-2-2-2-2-2-2-2-2-2-2-2-2-2-2-2-|
    1 + 2 + 3 + 4 + 1 + 2 + 3 + 4 + 1 + 2 + 3 + 4 + 1 + 2 + 3 + 4 +

F#|-----------------------------------------------------------------|
C#|-----------------------------2---2-------------------------------|
G#|-0-0-0-0-0-0-0-0-2-2-2-2-2-4---4---4-4-4-4-4-4-4-4-4-4-4-4-4-4-4-|
C#|-----------------------------------------------------------------|
    1 + 2 + 3 + 4 + 1 + 2 + 3 + 4 + 1 + 2 + 3 + 4 + 1 + 2 + 3 + 4 +

F#|-----------------------------------------------------------------|
C#|-----------------------------------------------------------------|
G#|-0-0-0-0-0-0-0-0-2-2-2-2-2-2-2-2-4-4-----6-6-----7-7-----2-2-----|
C#|-----------------------------------------------------------------|
    1 + 2 + 3 + 4 + 1 + 2 + 3 + 4 + 1 + 2 + 3 + 4 + 1 + 2 + 3 + 4 +

F#|---------------------------------|
C#|---------------------------------|
G#|-0-0-0-0-0-0-0-0-2-2-2-2-2-2-2-2-|
C#|---------------------------------|
    1 + 2 + 3 + 4 + 1 + 2 + 3 + 4 +

F#|-----------------------------------------------------------------|
C#|-----------------------------------------------------------------|
G#|-0-0-0-0-0-0-0-0-2-2-2-2-2-2-2-2---------------------------------|
C#|---------------------------------2-2-2-2-2-2-2-2-2-2-2-2-2-2-2-2-|
    1 + 2 + 3 + 4 + 1 + 2 + 3 + 4 + 1 + 2 + 3 + 4 + 1 + 2 + 3 + 4 +

F#|-----------------------------------------------------------------|
C#|---------------------------------------------2---2-4-6---6-4-----|
G#|-0-0-0-0-0-0-0-0-2-2-2-2-2-4-2---4-4-4-4-2-4---4-------------6-4-|
C#|-----------------------------------------------------------------|
    1 + 2 + 3 + 4 + 1 + 2 + 3 + 4 + 1 + 2 + 3 + 4 + 1 + 2 + 3 + 4 +

F#|-----------------------------------------------------------------|
C#|-----------------------------------------------------------------|
G#|-0-0-0-0-0-0-0-0-2-2-2-2-2-2-2-2-4-4-----6-6-----7-7-----2-2-----|
C#|-----------------------------------------------------------------|
    1 + 2 + 3 + 4 + 1 + 2 + 3 + 4 + 1 + 2 + 3 + 4 + 1 + 2 + 3 + 4 +

F#|-----------------------------------------------------------------|
C#|-----------------------------------------------------------------|
G#|-0-0-0-0-0-0-0-0-2-2-2-2-2-2-2-2---------------------------------|
C#|---------------------------------2-------------------------------|
    1 + 2 + 3 + 4 + 1 + 2 + 3 + 4 + 1 + 2 + 3 + 4 + 1 + 2 + 3 + 4 +

            
            
Suggest correction
Creating personal tab
Creating personal tab
You can edit any tab online and save it as your Personal.

You can edit, replace or remove any tab part or add personal notes – all changes will be seen only by you.

Personal tabs can be accessed anytime from any device, even offline.
Learn more »
comments
print report bad tab
3 comments total.
+1 reply
Teh D Bot 11,992 Jun 08, 2013 06:10 PM

Here are the fills you said you were missing. I'm currently tuned in drop D so i tabbed them in Drop D, so all you gotta do is change them to C#

G|---8---8-10-12-8-10-12-8-\---------------------------------------|
D|-8---8-----------------------------------------------------------|
A|-----------------------------------6---6-8-10-6-8-10-6-\---------|
D|---------------------------------8---8---------------------------|

0 reply
JackMills 6,147 Jun 09, 2013 02:32 AM

Cheers bro! I'll change it now ^^

0 reply
spencer.beberma 10 Mar 07, 2014 05:33 PM

The bridge isn't quite right.
This is already in Eb Drop D (C#), so don't move it a step up.

F#||---9----9-11-9-11-11-13-9~~\|--------------------------|----------||
C#||11---11---------------------|----9----9----------------|----------||
G#||----------------------------|-11---11----9--9-11-7~~~~\|----------||
C#||----------------------------|--------------------------|--14\--14\||
(2:07) (2:07) (2:16)

Some of the riffs at verse 2 are a little off too. I don't know if they are perfect, but they sound good when I play them with the song, so here they are.

F#||-----------------|-----------------|
C#||------4-2-4-6--2-|------6-4-6-7--4-|
G#||-----------------|-----------------|
C#||-2-2-------------|-2-2-------------|
(1:08) (1:17)

This one sounds a little better because it fits the tempo, and the two sections differ between minor/major.

guest
You may want to rate the tab now too:
select rating
Wanna post a correction for this tab? Suggest correction