Oops, an error
Loading. Please wait.

Riot album tab

106,475 views 57 this week
16 commentsread comments
1 2 3 4 5
x 13
add to favorites
×
Save as Personal and add changes to this tab that will be seen only by you. Learn more ›
×
You can save this tab as Personal to edit and correct it or add notes. All changes will be seen only by you. Learn more »
launch autoscroll
font size
0
reset
how to read this tab
guitar tuner
edit
Autoscroll
slow
fast
+/-
esc
set tempo
stop
Author
Tabbers playing skills
advanced +
#----------------------------------PLEASE NOTE---------------------------------#
 This file is the author's own work and represents their interpretation of the  
 song. You may only use this file for private study, scholarship, or research. 
 IF THIS WILL BE USED FOR COVER SONG FOR(YOUTUBE,ANY SITE)Pls include the TABS' 
                       LINK IN THE VIDEO DESCPITION.
#------------------------------------------------------------------------------#

Paramore    :   RIOT (ALBUM)
Transcriber :  Francis Sario
Site        :  https://www.facebook.com/francistwister.sario

I DEDICATE THIS SONG TO MAY TATAY(DAD) :) I LOVE YOU :)

Paramore-RIOT Album

"For a Pessimist, I'm Pretty Optimistic" - 3:48 
"That's What You Get" - 3:40 
"Hallelujah" - 3:23 
"Misery Business" - 3:31 
"When It Rains" - 3:35 
"Let the Flames Begin" - 3:18 
"Miracle" - 3:29 
"Crushcrushcrush" - 3:09 
"We Are Broken" - 3:38 
"Fences" - 3:19 
"Born For This" - 3:58 


|--------------------------------------------------------------------------|
                     For A Pessimist Im Pretty Optimistic
|--------------------------------------------------------------------------|


note- tab1 -eb tuning /drop C#
      tab2- standard /drop d


tab #1


Guitar 1 - { eb bb gb db Ab Db )

Guitar 2 - { eb bb gb db Ab Db )


Intro 2x

Guitar1
|------------------------------------------|
|------------------------------------------|
|--555555----------------------------------|
|--555555---555555---222222---000000-------|
|--333333---555555---222222---000000-------|
|-----------555555---222222---000000-------|

|--------------------------------|
|--------------------------------|
|--555555------------------------|
|--555555---555555---000000000---|
|--333333---555555---000000000---|
|-----------555555---000000000---|

Guitar2
|-------------------------------|-------------------------|
|-------------------------------|-------------------------|
|--13-13/16-16-16-16------------|--12-12-/11-11-11-11-----|
|--x--x--x--x--x--x-------------|--x---x--x--x--x---x-----|
|--15-15/14-14-14-14------------|--10-10-/9--9--9---9-----|
|-------------------------------|-------------------------|

|----------------------|-----------------------|
|----------------------|-----------------------|
|--13-13/16-16-16-16---|--19-19-19-19-19-19----|
|--x--x--x--x--x--x----|--x--x--x--x--x--x-----|
|--15-15/14-14-14-14---|--17-17-17-17-17-17----|
|----------------------|-----------------------|

Verse-
G1
|--------------|------------------|
|--------------|------------------|
|--------------|--5555555555555---|
|---5~---------|--5555555555555---|
|---5~---------|--3333333333333---|
|---5~---------|------------------|

|--------------|------------------|
|--------------|------------------|
|--------------|--5555555555555---|
|---5~---------|--5555555555555---|
|---5~---------|--3333333333333---|
|---5~---------|------------------|

Verse2

Guitar1
|--------------------------------|-----|---------------|--------|
|--------------------------------|-----|---------------|--------|
|--------------------------------|-----|---------------|--------|
|-55-555-555-555-577-777-777-777-|-2-2-|---------------|--0~-0~-|
|-55-555-555-555-577-777-777-777-|-2-2-|---------------|--0~-0~-|
|-55-555-555-555-577-777-777-777-|-2-2-|---------------|--0~-0~-|
Guitar2
|--------------------------------|-----|---------------|--------|
|--------------------------------|-----|-5555/88888888-|--------|
|-77-777-777-777-799-999-999-999-|-4-4-|-4444/7777777--|--2~-2~-|
|-55-555-555-555-577-777-777-777-|-2-2-|---------------|--0~-0~-|
|-55-555-555-555-577-777-777-777-|-2-2-|---------------|--0~-0~-|
|-55-555-555-555-577-777-777-777-|-2-2-|---------------|--0~-0~-|


Refrain-
Not sure if this part
GtrI
|--------------|
|--------------|
|--------------|
|-7--9--10--12-|2x
|-7--9--10--12-|
|-7--9--10--12-|
Guitar2
1.
|------12*-|
|---12*----|
|----------|
|----------|
|----------|
|----------|

|-----7*---|
|--7*------|
|----------|w/ harmonics
|----------|
|----------|
|----------|
Chorus-

Guitar1

|-----------------|------------------------|
|-----------------|------------------------|
|-555-------------|-555--------------------|
|-555-0000-222222-|-555-0000-777777--------|
|-333-0000-222222-|-333-0000-777777--------|
|-----0000-222222-|-----0000-777777--------|

|-----------------|------------------------|
|-----------------|------------------------|
|-555-------------|-555--------------------|
|-555-0000-222222-|-555-0000-555555--0-0-0-|
|-333-0000-222222-|-333-0000-555555--0-0-0-|
|-----0000-222222-|-----0000-555555--0-0-0-|


Guitar2
|-----------------------------------------|-------------------------------|
|-----------------------------------------|-------------------------------|
|-999-11-11-11-11-11-12-12-12-12-12-12----|---999--12121212-141414141414--|
|-xxx-x--x--x--x--x---x--x--x--x--x-x-----|---xxx--x-x-x-x--x-x-x-x-x-x---|
|-777-9--9--9--9--9--10-10-10-10-10-10----|---777--10101010-121212121212--|
|-----------------------------------------|-------------------------------|

|----------------------------------------|----------------------------------|-------|
|----------------------------------------|----------------------------------|-------|
|-999-11-11-11-11-11-12-12-12-12-12-12---|---999-12121212-12-12-12-12-12-12-|-7-7-7-|
|-xxx-x--x--x--x--x---x--x--x--x--x-x----|---xxx-x-x-x-x--x--x---x--x-x--x--|-x-x-x-|
|-777-9--9--9--9--9--10-10-10-10-10-10---|---777-9-9-9-9--10-10-10-10-10-10-|-5-5-5-|
|----------------------------------------|----------------------------------|-------|
Continued..

Guitar1

|------------------------------------------|
|------------------------------------------|
|--555555----------------------------------|
|--555555---555555---222222---000000-------|
|--333333---555555---222222---000000-------|
|-----------555555---222222---000000-------|

|--------------------------------|
|--------------------------------|
|--555555------------------------|
|--555555---555555---000000000---|
|--333333---555555---000000000---|
|-----------555555---000000000---|

Guitar2
|-------------------------------|-------------------------|
|-------------------------------|-------------------------|
|--13-13/16-16-16-16------------|--12-12-/11-11-11-11-----|
|--x--x--x--x--x--x-------------|--x---x--x--x--x---x-----|
|--15-15/14-14-14-14------------|--10-10-/9--9--9---9-----|
|-------------------------------|-------------------------|

|----------------------|-----------------------|
|----------------------|-----------------------|
|--13-13/16-16-16-16---|--19-19-19-19-19-19----|
|--x--x--x--x--x--x----|--x--x--x--x--x--x-----|
|--15-15/14-14-14-14---|--17-17-17-17-17-17----|
|----------------------|-----------------------|

Repeat verse 1&2,refrain,chorus


Bridge-P.M.
Guitar1

|---------------------------------------------|
|---------------------------------------------|
|---------------------------------------------|
|-22222222-4444-5555-10101010-9999-7777-44444-|
|-22222222-4444-5555-10101010-9999-7777-44444-|
|-22222222-4444-5555-10101010-9999-7777-44444-|

|----------------------------------------------|
|----------------------------------------------|
|----------------------------------------------|
|-2222-4444-5555-7777-10101010-9999-7777-4444--|
|-2222-4444-5555-7777-10101010-9999-7777-4444--|
|-2222-4444-5555-7777-10101010-9999-7777-4444--|

Continued-



Guitar1

|-----------------------------------------------------|   |------|
|------------------------10-----13-----12------9------|   |------|
|---9-----11-----12-----------------------------------|2x |------|
|-----------------------------------------------------|   |--5~--|
|-----------------------------------------------------|   |--5~--|
|-----------------------------------------------------|   |--5~--|


Guitar2
|----------------------------------|---------------------------------|
|-12-----12-----12-----12-----12---|-8----8-----8--------------------| 
|---12-9---12-9---12-9---12-9------|---5----7-5----5-4-2-4-2~--------|
|----------------------------------|---------------------------------| 
|----------------------------------|---------------------------------|
|----------------------------------|---------------------------------|


|----------------------------------|---------------------------------|
|-12-----12-----12-----12-----12---|-8----8------8-------------------| 
|---12-9---12-9---12-9---12-9------|---7-5----7-5----5-4-2-4-2---4~--|
|----------------------------------|---------------------------------| 
|----------------------------------|---------------------------------|
|----------------------------------|---------------------------------|





Outro-

Guitar1
|------------------------------------------|
|------------------------------------------|
|--555555----------------------------------|
|--555555---555555---222222---000000-------|
|--333333---555555---222222---000000-------|
|-----------555555---222222---000000-------|

|--------------------------------|
|--------------------------------|
|--555555------------------------|
|--555555---555555---000000000---|
|--333333---555555---000000000---|
|-----------555555---000000000---|

Guitar2
|-------------------------------|-------------------------|
|-------------------------------|-------------------------|
|--13-13/16-16-16-16------------|--12-12-/11-11-11-11-----|
|--x--x--x--x--x--x-------------|--x---x--x--x--x---x-----|
|--15-15/14-14-14-14------------|--10-10-/9--9--9---9-----|
|-------------------------------|-------------------------|

|----------------------|-----------------------|
|----------------------|-----------------------|
|--13-13/16-16-16-16---|--19-19-19-19-19-19----|
|--x--x--x--x--x--x----|--x--x--x--x--x--x-----|
|--15-15/14-14-14-14---|--17-17-17-17-17-17----|
|----------------------|-----------------------|

Continued...

Guitar1

|-----------------|------------------|
|-----------------|------------------|
|-555-------------|-555--------------|
|-555-0000-222222-|-555-0000-555555--|
|-333-0000-222222-|-333-0000-555555--|
|-----0000-222222-|-----0000-555555--|


|-----------------|------------------------|
|-----------------|------------------------|
|-555-------------|-555--------------------|
|-555-0000-222222-|-555-0000-777777--------|
|-333-0000-222222-|-333-0000-777777--------|
|-----0000-222222-|-----0000-777777--------|


|-----------------|------------------|
|-----------------|------------------|
|-555-------------|-555--------------|
|-555-0000-222222-|-555-0000-555555--|
|-333-0000-222222-|-333-0000-555555--|
|-----0000-222222-|-----0000-555555--|



Guitar2



|----------------------------------------|----------------------------------|
|----------------------------------------|----------------------------------|
|-999-11-11-11-11-11-12-12-12-12-12-12---|---999-12121212-12-12-12-12-12-12-|
|-xxx-x--x--x--x--x---x--x--x--x--x-x----|---xxx-x-x-x-x--x--x---x--x-x--x--|
|-777-9--9--9--9--9--10-10-10-10-10-10---|---777-9-9-9-9--10-10-10-10-10-10-|
|----------------------------------------|----------------------------------|

|-----------------------------------------|-------------------------------|
|-----------------------------------------|-------------------------------|
|-999-11-11-11-11-11-12-12-12-12-12-12----|---888--12121212-141414141414--|
|-xxx-x--x--x--x--x---x--x--x--x--x-x-----|---xxx--x-x-x-x--x-x-x-x-x-x---|
|-777-9--9--9--9--9--10-10-10-10-10-10----|---777--10101010-121212121212--|
|-----------------------------------------|-------------------------------|

|----------------------------------------|----------------------------------|
|----------------------------------------|----------------------------------|
|-999-11-11-11-11-11-12-12-12-12-12-12---|---999-12121212-12-12-12-12-12-12-|
|-xxx-x--x--x--x--x---x--x--x--x--x-x----|---xxx-x-x-x-x--x--x---x--x-x--x--|
|-777-9--9--9--9--9--10-10-10-10-10-10---|---777-9-9-9-9--10-10-10-10-10-10-|
|----------------------------------------|----------------------------------|
Continued..



End

G1
|----------|------------|
|----------|------------|
|----------|------------|
|---2~-----|----4~------|
|---2~-----|----4~------|
|---2~-----|----4~------|

G2
|----------|------------|
|----------|------------|
|---9~-----|---11~------|
|---x------|---x--------|
|---7~-----|---9~-------|
|----------|------------|


|--------------------------------------------------------------------------|
                           Thats What You Get  
|--------------------------------------------------------------------------|

Guitar1- {eb bb gb db Ab Db}
Guitar2- {eb bb gb db Ab Db}

Intro-

Guitar1

   
|-----------------------------------------------------|
|-----------------------------------------------------|
|-------------------------------------------131313-11-|2x
|-------4h6------6h9----------9h11----------x-x-x--x--|
|-4-4-4-----4-4-4-----6-6-6-----------------111111-9--|
|-----------------------------------------------------|

Guitar2

|-------------------------------------------------|
|-------------------------------------------------|
|---------------------------------13-13-13---11---|
|-111111-----111111-----131313----11-11-11---9----|2x
|-7-7-7------7-7-7------9-9-9-----11-11-11---9----|
|-7-7-7------7-7-7------9-9-9-----11-11-11---9----|



Verse-



Guitar1 


|---7---|---7---|----7----|---7-----|
|---9---|---7---|----9----|---7-----|
|---9---|---9---|----9----|---9-----|
|-------|-------|---------|---------|2x
|-------|-------|---------|---------|
|-------|-------|---------|---------|


Guitar2PALM MUTE

|--------------------------------|
|--------------------------------|
|--------------------------------|
|-7-7-7--7-7-7---9-9-9---111111--|4x
|-7-7-7--7-7-7---9-9-9---111111--|
|-7-7-7--7-7-7---9-9-9---111111--|
  * * *  * * *   * * *   * * *


Continued...

gTRi
|-----------------------------------------------------|
|-----------------------------------------------------|
|-------------------------------------------131313-11-|2x
|-------4h6------6h9----------9h11----------x-x-x--x--|
|-4-4-4-----4-4-4-----6-6-6-----------------111111-9--|
|-----------------------------------------------------|

Guitar2

|-------------------------------------------------|
|-------------------------------------------------|
|---------------------------------13-13-13---11---|
|-111111-----111111-----131313----11-11-11---9----|2x
|-7-7-7------7-7-7------9-9-9-----11-11-11---9----|
|-7-7-7------7-7-7------9-9-9-----11-11-11---9----|

REPEAT Verse





Pre-chorus

G1

|----|
|----|
|-4~-|
|-2~-|
|-2~-|
|-2~-|



G2

|-0--|
|-0--|
|-9~-|
|-9~-|
|-7~-|
|----|





Chorus-

Guitar1

|--------------------------------|
|--------------------------------|
|---------------6666--44444------|
|-77777--22222--6666--44444------|
|-77777--22222--4444--22222------|
|-77777--22222-------------------|



Guitar2



|-16~------16~-------------------|--16~------16~-----14~------14~-------|
|-----17~-------17~--16h17-16----|-------17~-----17~--------------------|
|----------------------------16--|----------------------16~-------16~---|
|--------------------------------|--------------------------------------|
|--------------------------------|--------------------------------------|
|--------------------------------|--------------------------------------|

GUITAR1

|--------------------------------|
|--------------------------------|
|----------------4444444444------|
|-77777--222222--4444444444------|
|-77777--222222--2222222222------|
|-77777--222222------------------|

GUITAR2



|-16~------16~-------------------|--14~------14~----14~------14~--------|
|-----17~-------17~--16h17-16----|--------------------------------------|
|----------------------------16--|------16~-------16~----16~-------16~--|
|--------------------------------|--------------------------------------|
|--------------------------------|--------------------------------------|
|--------------------------------|--------------------------------------|


GUITAR1

|-------------------------|   
|-------------------------|   
|---6666666--4444444------|   
|---6666666--4444444------|2x
|---4444444--2222222------|   
|-------------------------|

GUITAR2(I CAN HEAR GUITAR 2 AT THIS PART...)
not sure of this tab..
|--------------------------------------------------------------------|
|--------------------------------------------------------------------|
|---------------------13-13----1616---13--13-13----------------------|
|--14-14-14--16-16--------------------------------16--16--16--16-----|
|--------------------------------------------------------------------|
|--------------------------------------------------------------------|


|--------------------------------------------------------------------|
|--------------------------------------------------------------------|
|---------------------13-13----1616---13--13-13----------------------|
|--14-14-14--16-16--------------------------------14--16--16--16-----|
|--------------------------------------------------------------------|
|--------------------------------------------------------------------|

GUITAR1
|--------------------------------|
|--------------------------------|
|----------------4444444444------|
|-77777--222222--4444444444------|
|-77777--222222--2222222222------|
|-77777--222222------------------|   



Guitar2
|-16~------16~-------------------|--14~------14~----14~------14~--------|
|-----17~-------17~--16h17-16----|--------------------------------------|
|----------------------------16--|------16~-------16~----16~-------16~--|
|--------------------------------|--------------------------------------|
|--------------------------------|--------------------------------------|
|--------------------------------|--------------------------------------|





Interlude-



Guitar2

|-------------------------------------------------|
|-------------------------------------------------|
|---------------------------------13-13-13---11---|
|-111111-----111111-----131313----11-11-11---9----|2x
|-7-7-7------7-7-7------9-9-9-----11-11-11---9----|
|-7-7-7------7-7-7------9-9-9-----11-11-11---9----|

then...
do intro




repeat verse

Pre-chorus

Repeat Chorus


Verse-



Continued...
Do intro





Chorus-



Drum beats then



|-----------------------------|
|-----------------------------|
|--4-4-4-4-4-44444444---------|
|--4-4-4-4-4-44444444---------|
|--2-2-2-2-2-22222222---------|
|-----------------------------|
   * * * * * *   


Repeat chorus then



G1
|-16~---14~------12~~------|
|-17~---14-------12~~------|
|-16----16~------11--------|
|--------------------------|
|--------------------------|
|--------------------------|


G2

|-------------------0--|
|-------------------0--|
|-------------------4--|
|-777-xxxx-777-xxxx-2~-|
|-777-xxxx-777-xxxx-2~-|
|-777-xxxx-777-xxxx-2~-|




|--------------------------------------------------------------------------|
                                      Hallelujah
|--------------------------------------------------------------------------|

[Rhythm Guitar]
[Intro]
e|---7-7-7-9-9-9-11-11-11-14-14-14-14-14-14-14-14-------------|
B|---0-0-0-0-0-0--0--0--0--0--0-11-11-11-11-11-11-------------|
G|------------------------------------------------------------| x6 Times
D|------------------------------------------------------------|
A|------------------------------------------------------------|
D|------------------------------------------------------------|

[Verse]
e|------------------------------------------------------------|
B|------------------------------------------------------------|
G|--11-11-11--8-8--8--10-10-10--------------------------------| x4 Times
D|---9-9--9---6-6--6---8-8--8---------------------------------|
A|---9-9--9---6-6--6---8-8--8---------------------------------|
D|---9-9--9---6-6--6---8-8--8---------------------------------|

[END ON]
e|---------|
B|---------|
G|---11----|
D|----9----|
A|----9----|
D|----9----|

[Chorus]
e|---7-7-7-9-9-9-11-11-11-14-14-14-14-14-14-14-14-------------|
B|---0-0-0-0-0-0--0--0--0--0--0-11-11-11-11-11-11-------------|
G|------------------------------------------------------------| x4 Times
D|------------------------------------------------------------|
A|------------------------------------------------------------|
D|------------------------------------------------------------|

e|-------11-----11-------6-7-----------------------------------|
B|------------9-----9------------------------------------------|
G|---8-9----8--------------------------------------------------| x2 Times
D|-------------------------------------------------------------|
A|-------------------------------------------------------------|
D|-------------------------------------------------------------|

[Verse 2]
e|------------------------------------------------------------|
B|------------------------------------------------------------|
G|--11----8-8--8----10-10---10--------------------------------|
D|---9----6-6--6----8--8----8---------------------------------|
A|---9----6-6--6----8--8----8---------------------------------|
D|---9----6-6--6----8--8----8---------------------------------|

e|------------------------------------------------------------|
B|------------------------------------------------------------|
G|---11-11---11---8--8---8----10-10---10----------------------|x3 Times
D|---9--9----9----6--6---6----8--8----8-----------------------|
A|---9--9----9----6--6---6----8--8----8-----------------------|
D|---9--9----9----6--6---6----8--8----8-----------------------|

[END ON]
e|------------|
B|------------|
G|----11~-----|
D|-----9~-----|
A|-----9~-----|
D|-----9~-----|

[Chorus 2]
e|---7-7-7-9-9-9-11-11-11-14-14-14-14-14-14-14-14-------------|
B|---0-0-0-0-0-0--0--0--0--0--0-11-11-11-11-11-11-------------|
G|------------------------------------------------------------| x4 Times
D|------------------------------------------------------------|
A|------------------------------------------------------------|
D|------------------------------------------------------------|

e|-------11-----11-------6-7-----------------------------------|
B|------------9-----9------------------------------------------|
G|---8-9----8--------------------------------------------------| x2 Times
D|-------------------------------------------------------------|
A|-------------------------------------------------------------|
D|-------------------------------------------------------------|

[BREAKDOWN]
e|------------------------------------------------------------|-\- |
B|------------------------------------------------------------| -- |
G|------------------------------------------------------------| -- |
D|---1-1-1--2-2-2--6-6-6--9-9-9-9-9-9-9-----------------------| -- |
A|---1-1-1--2-2-2--6-6-6--9-9-9-9-9-9-9-----------------------| -- |
D|---1-1-1--2-2-2--6-6-6--9-9-9-9-9-9-9-----------------------| -- |
     * * *  * * *  * * *    * *       *                          |x2 Times
                                                                 |
e|------------------------------------------------------------| -- |
B|------------------------------------------------------------| -- |
G|------------------------------------------------------------| -- |
D|---1-1-1--2-2-2--4-4-4-4-4-4-4-4-4-4------------------------| -- |
A|---1-1-1--2-2-2--4-4-4-4-4-4-4-4-4-4------------------------| -- |
D|---1-1-1--2-2-2--4-4-4-4-4-4-4-4-4-4---------------------------- |
     * * *  * * *  * * *   * *       *

e|------------------------------------------------------------|-\- |
B|------------------------------------------------------------| -- |
G|------------------------------------------------------------| -- |
D|---1-1-1--2-2-2--6-6-6--9-9-9-9-9-9-9-----------------------| -- |
A|---1-1-1--2-2-2--6-6-6--9-9-9-9-9-9-9-----------------------| -- |
D|---1-1-1--2-2-2--6-6-6--9-9-9-9-9-9-9-----------------------| -- |
                                                                 |x 3 Times
                                                                 |
e|------------------------------------------------------------| -- |
B|------------------------------------------------------------| -- |
G|------------------------------------------------------------| -- |
D|---1-1-1--2-2-2--4-4-4-4-4-4-4-4-4-4------------------------| -- |
A|---1-1-1--2-2-2--4-4-4-4-4-4-4-4-4-4------------------------| -- |
D|---1-1-1--2-2-2--4-4-4-4-4-4-4-4-4-4---------------------------- |

[Chorus 3]
e|---7-7-7-9-9-9-11-11-11-14-14-14-14-14-14-14-14-------------|
B|---0-0-0-0-0-0--0--0--0--0--0-11-11-11-11-11-11-------------|
G|------------------------------------------------------------| x4 Times
D|------------------------------------------------------------|
A|------------------------------------------------------------|
D|------------------------------------------------------------|

e|-------11-----11-------6-7-----------------------------------|
B|------------9-----9------------------------------------------|
G|---8-9----8--------------------------------------------------| x2 Times
D|-------------------------------------------------------------|
A|-------------------------------------------------------------|
D|-------------------------------------------------------------|

[END ON]
e|------------|
B|------------|
G|----11~-----|
D|-----9~-----|
A|-----9~-----|
D|-----9~-----|


[LEAD GUITAR]
[Intro]
e|-----------------------------------------------------------|
B|-----------------------------------------------------------|
G|-----------------------------------------------------------|
D|---X-X----9---------6--------2-----------------------------|
A|---X-X----9-(x16)---6-(x6)---2-(x10)-----------------------|
D|---X-X----9---------6--------2-----------------------------|

[Verse]
e|-----------------------------------------------------------|
B|-----------------------------------------------------------|
G|-----------------------------------------------------------|
D|-9-9--9---6-6--6---8-8--8---9-9--9---6-6--6---8-8--8-------|
A|-9-9--9---6-6--6---8-8--8---9-9--9---6-6--6---8-8--8-------|
D|-9-9--9---6-6--6---8-8--8---9-9--9---6-6--6---8-8--8-------|

e|--------------0-0-2-2-7-7-6-6-6-6---------0-0-----------------|
B|--0-0-2-2-4-4---------------------0-0-2-2-----4-4-2-2-4-4-4-4-|
G|--------------------------------------------------------------| x2 Times
D|--------------------------------------------------------------|
A|--------------------------------------------------------------|
D|--------------------------------------------------------------|

[Pre-Chorus]
e|----7-7-7-9-9-9-11-11-11-14-14-14-14-14-14-14-----------------|
B|----0-0-0-0-0-0--0--0--0--0--0-11-11-11-11-11-----------------|
G|--------------------------------------------------------------| x2 Times
D|--------------------------------------------------------------|
A|--------------------------------------------------------------|
D|--------------------------------------------------------------|

[Chorus]
e|---------------------------------------------------------------|
B|---------------------------------------------------------------|
G|---------------------------------------------------------------| x2 Times
D|-9-9-9-9-9-9-9-9-9-9-9-9-9-9--6-6-6-6-6-6--2-2-2-2-2-2-2-2-2-2-|
A|-9-9-9-9-9-9-9-9-9-9-9-9-9-9--6-6-6-6-6-6--2-2-2-2-2-2-2-2-2-2-|
D|-9-9-9-9-9-9-9-9-9-9-9-9-9-9--6-6-6-6-6-6--2-2-2-2-2-2-2-2-2-2-|

e|---------------------------------------------------------------|
B|---------------------------------------------------------------|
G|---------------------------------------------------------------| x2 Times
D|--9-9-9--9-9-9--9-9-9--9-9-9--6-6-6-6-6-6--2~------------------|
A|--9-9-9--9-9-9--9-9-9--9-9-9--6-6-6-6-6-6--2~------------------|
D|--9-9-9--9-9-9--9-9-9--9-9-9--6-6-6-6-6-6--2~------------------|

[Verse 2]
e|---------------------------------------------------------------|
B|---------------------------------------------------------------|
G|---------------------------------------------------------------|
D|----9~---6-6--6---8-8--8---9-9--9---6-6--6---8-8--8------------|
A|----9~---6-6--6---8-8--8---9-9--9---6-6--6---8-8--8------------|
D|----9~---6-6--6---8-8--8---9-9--9---6-6--6---8-8--8------------|

e|----------------0-0-2-2-7-7-6-6-6-6-------------0-0------------|
B|----0-0-2-2-4-4---------------------0-0-2-2-4-4-----4-4-4-4----|
G|---------------------------------------------------------------| x2 Times
D|---------------------------------------------------------------|
A|---------------------------------------------------------------|
D|---------------------------------------------------------------|

[Pre-Chorus]
e|----7-7-7-9-9-9-11-11-11-14-14-14-14-14-14-14-----------------|
B|----0-0-0-0-0-0--0--0--0--0--0-11-11-11-11-11-----------------|
G|--------------------------------------------------------------|
D|--------------------------------------------------------------|
A|--------------------------------------------------------------|
D|--------------------------------------------------------------|

e|----------14--------14-------14--------------------------------|
B|----11h12-----11h12----11h12-----------------------------------|
G|---------------------------------------------------------------|
D|---------------------------------------------------------------|
A|---------------------------------------------------------------|
D|---------------------------------------------------------------|

[Chorus]
e|---------------------------------------------------------------|
B|---------------------------------------------------------------|
G|---------------------------------------------------------------| x2 Times
D|-9-9-9-9-9-9-9-9-9-9-9-9-9-9--6-6-6-6-6-6--2-2-2-2-2-2-2-2-2-2-|
A|-9-9-9-9-9-9-9-9-9-9-9-9-9-9--6-6-6-6-6-6--2-2-2-2-2-2-2-2-2-2-|
D|-9-9-9-9-9-9-9-9-9-9-9-9-9-9--6-6-6-6-6-6--2-2-2-2-2-2-2-2-2-2-|

e|---------------------------------------------------------------|
B|---------------------------------------------------------------|
G|---------------------------------------------------------------| x2 Times
D|--9-9-9--9-9-9--9-9-9--9-9-9--6-6-6-6-6-6--2~------------------|
A|--9-9-9--9-9-9--9-9-9--9-9-9--6-6-6-6-6-6--2~------------------|
D|--9-9-9--9-9-9--9-9-9--9-9-9--6-6-6-6-6-6--2~------------------|

[BREAKDOWN]
e|---7--x-x--7--x-x--7--x-x--9-9-9-9--6-6-6-----------------------|
B|---x--x-x--x--x-x--x--x-x--x-x-x-x--x-x-x-----------------------|
G|---4--x-x--4--x-x--4--x-x--6-6-6-6--3-3-3-----------------------|
D|----------------------------------------------------------------|
A|----------------------------------------------------------------|
D|----------------------------------------------------------------|

e|---7-7-7-7-7-7-7-7-7--6-6-6-6-6-6-6----------------------------|
B|---x-x-x-x-x-x-x-x-x--x-x-x-x-x-x-x----------------------------|
G|---4-4-4-4-4-4-4-4-4--3-3-3-3-3-3-3----------------------------|
D|---------------------------------------------------------------|
A|---------------------------------------------------------------|
D|---------------------------------------------------------------|

e|---7-7-7--6-6-6------------------------------------------------|
B|---x-x-x--x-x-x--7-7-7-7-7-7-7-7-7-7---------------------------|
G|---4-4-4--3-3-3--x-x-x-x-x-x-x-x-x-x---------------------------| x4 Times
D|-----------------4-4-4-4-4-4-4-4-4-4---------------------------|
A|---------------------------------------------------------------|
D|---------------------------------------------------------------|

e|------------------------------7~-9~-11~-12~-11-----------------|
B|---7~--7-7-7-7-7-7---------------------------------------------|
G|-------------------9-9-9-8-8-8---------------------------------|
D|---------------------------------------------------------------|
A|---------------------------------------------------------------|
D|---------------------------------------------------------------|

[Chorus]
e|---------------------------------------------------------------|
B|---------------------------------------------------------------|
G|---------------------------------------------------------------| x2 Times
D|-9-9-9-9-9-9-9-9-9-9-9-9-9-9--6-6-6-6-6-6--2-2-2-2-2-2-2-2-2-2-|
A|-9-9-9-9-9-9-9-9-9-9-9-9-9-9--6-6-6-6-6-6--2-2-2-2-2-2-2-2-2-2-|
D|-9-9-9-9-9-9-9-9-9-9-9-9-9-9--6-6-6-6-6-6--2-2-2-2-2-2-2-2-2-2-|

e|---------------------------------------------------------------|
B|---------------------------------------------------------------|
G|---------------------------------------------------------------| x2 Times
D|--9-9-9--9-9-9--9-9-9--9-9-9--6-6-6-6-6-6--2~------------------|
A|--9-9-9--9-9-9--9-9-9--9-9-9--6-6-6-6-6-6--2~------------------|
D|--9-9-9--9-9-9--9-9-9--9-9-9--6-6-6-6-6-6--2~------------------|

[END ON]
e|-------------|
B|-------------|
G|-------------|
D|---9-9--9~---|
A|---9-9--9~---|
D|---9-9--9~---|


|--------------------------------------------------------------------------|
                                  Misery Business VER.5-
|--------------------------------------------------------------------------|


Guitar1- {eb bb gb db Ab Db}
Guitar2- {eb bb gb db Ab Db}

Guitar 1:

Intro:

|-----------------|-----------------|-----------------|-----------------|
|-----------------|-----------------|-----------------|-----------------|
|-----------------|-----------------|-----------------|-----------------|
|-4-4---4---------|-2-2---2-2-2---2-|-4-4---4---------|-0-0---0-0-0-----|
|-4-4---4-2-4-2-4-|-2-2---2-2-2---2-|-4-4---4-2-4-2-4-|-0-0---0-0-0-----|
|-4-4---4---------|-2-2---2-2-2---2-|-4-4---4---------|-0-0---0-0-0-----|

|-----------------|-----------------|-----------------|----------------|
|-----------------|-----------------|-----------------|----------------|
|-----------------|-----------------|-----------------|----------------|
|-4-4---4---------|-2-2---2-2-2---2-|-4-4---4---------|-0-0---0-0------|
|-4-4---4-2-4-2-4-|-2-2---2-2-2---2-|-4-4---4-2-4-2-4-|-0-0---0-0------|
|-4-4---4---------|-2-2---2-2-2---2-|-4-4---4---------|-0-0---0-0------|

(0:25) VERSE (Palm muted) - Play x

|-----------------|-----------------|-----------------|-----------------|
|-----------------|-----------------|-----------------|-----------------|
|-----------------|-----------------|-----------------|-----------------|
|-4-4---4---------|-2-2---2-2-2---2-|-4-4---4---------|-0-0---0-0-0--0--|
|-4-4---4-2-4-2-4-|-2-2---2-2-2---2-|-4-4---4-2-4-2-4-|-0-0---0-0-0--0--|
|-4-4---4---------|-2-2---2-2-2---2-|-4-4---4---------|-0-0---0-0-0--0--|
  * *   * * * * *   * *   * * * * *   * *   * * * *     * *   * * *  *
 *   * * * 
|-----------------|-----------------|-----------------|-----------------|
|-----------------|-----------------|-----------------|-----------------|
|-----------------|-----------------|-----------------|-----------------|
|-4-4---4---------|-2-2---2-2-2---2-|-4-4---4---------|-9-9-9-9-9-9-9-9-|
|-4-4---4-2-4-2-4-|-2-2---2-2-2---2-|-4-4---4-2-4-2-4-|-7-7-7-7-7-7-7-7-|
|-4-4---4---------|-2-2---2-2-2---2-|-4-4---4---------|-7-7-7-7-6-6-6-6-|
  * *   * * * * *   * *   * * * * *   * *   * * * *     * * * * * * * *
Pre-
|-----------------|-----------------|
|-----------------|-----------------|
|-----------------|-----------------|
|-4-4-4-4-4-4-4-4-|-2-2-2-2-2-------|
|-4-4-4-4-4-4-4-4-|-2-2-2-2-2-------|
|-4-4-4-4-4-4-4-4-|-2-2-2-2-2-------|
  * * * * * * * *   * * * * *   

CHORUS PT. 1 - Play x2
|-----------------|-----------------|-----------------|-----------------|
|-7-7-7-7-7-7-7-7-|-----------------|-----------------|-----------------|
|-x-x-x-x-x-x-x-x-|-6-6-6-6-6-6-6-6-|-----------------|-6-6-6-6---------|
|-4-4-4-4-4-4-4-4-|-7-7-7-7-7-7-7-7-|-4-4-4-4-4-4-4-4-|-7-7-7-7-6-6-6-6-|2X
|-5-5-5-5-5-5-5-5-|-7-7-7-7-7-7-7-7-|-2-2-2-2-2-2-2-2-|-4-4-4-4-4-4-4-4-|
|-----------------|-----------------|-2-2-2-2-2-2-2-2-|-4-4-4-4-4-4-4-4-|
  
(1:01) CHORUS PT. 2
|-----------------|-----------------|-----------------|-----------------|
|-----------------|-----------------|-----------------|-----------------|
|-----------------|-----------------|-----------------|-----------------|
|-0---0---0---0---|-0---0---0-4-4-4-|-2---2---2---2---|-2---2---2-4-4-4-|
|-0---0---0---0---|-0---0---0-4-4-4-|-2---2---2---2---|-2---2---2-4-4-4-|
|-0---0---0---0---|-0---0---0-4-4-4-|-2---2---2---2---|-2---2---2-4-4-4-|
     
|-----------------|-----------------|-----------------|-----------------|
|-----------------|-----------------|-----------------|-----------------|
|-----------------|-----------------|-----------------|-----------------|
|-0---0---0---0---|-0---0---0-4-4-4-|-2---2---2---2---|-9-9-9-9-9-------|
|-0---0---0---0---|-0---0---0-4-4-4-|-2---2---2---2---|-7-7-7-7-7-------|
|-0---0---0---0---|-0---0---0-4-4-4-|-2---2---2---2---|-7-7-7-7-6-------|
     

(1:12) POST-CHORUS
|-----------------|-----------------|-----------------|-----------------|
|-----------------|-----------------|-----------------|-----------------|
|-----------------|-----------------|-----------------|-----------------|
|-4-4---4---------|-2-2---2-2-2---2-|-4-4---4---------|-0--0--0-0-------|
|-4-4---4-2-4-2-4-|-2-2---2-2-2---2-|-4-4---4-2-4-2-4-|-0--0--0-0-------|
|-4-4---4---------|-2-2---2-2-2---2-|-4-4---4---------|-0--0--0-0-------|
     
(1:17) VERSE

(1:40) PRE-CHORUS

(1:43) CHORUS PT. 1

(1:54) CHORUS PT. 2

(2:05) BRIDGE (Clean) - Play x4
*Strum chords and hold*
|-----------------|-----------------|-----------------|-----------------|
|-7---------------|-----------------|-----------------|-----------------|
|-x---------------|-6---------------|-----------------|-6---------------|
|-4---------------|-7---------------|-4---------------|-7-------6-------|
|-5---------------|-7---------------|-2---------------|-4-------4-------|
|-----------------|-----------------|-2---------------|-4-------4-------|
     
(2:27) SOLO PT. 1 - Play x2
|-----------------|-----------------|-----------------|-----------------|
|-7-7-7-7-7-7-7-7-|-----------------|-----------------|-----------------|
|-x-x-x-x-x-x-x-x-|-6-6-6-6-6-6-6-6-|-----------------|-6-6-6-6---------|
|-4-4-4-4-4-4-4-4-|-7-7-7-7-7-7-7-7-|-4-4-4-4-4-4-4-4-|-7-7-7-7-6-6-6-6-|
|-5-5-5-5-5-5-5-5-|-7-7-7-7-7-7-7-7-|-2-2-2-2-2-2-2-2-|-4-4-4-4-4-4-4-4-|
|-----------------|-----------------|-2-2-2-2-2-2-2-2-|-4-4-4-4-4-4-4-4-|
     
(2:38) SOLO PT. 2
|-----------------|-----------------|-----------------|-----------------|
|-----------------|-----------------|-----------------|-----------------|
|-----------------|-----------------|-----------------|-----------------|
|-0-0-0-0-0-0-0-0-|-0-0-0-0-0-4-4-4-|-2-2-2-2-2-2-2-2-|-2-2-2-2-2-4-4-4-|
|-0-0-0-0-0-0-0-0-|-0-0-0-0-0-4-4-4-|-2-2-2-2-2-2-2-2-|-2-2-2-2-2-4-4-4-|
|-0-0-0-0-0-0-0-0-|-0-0-0-0-0-4-4-4-|-2-2-2-2-2-2-2-2-|-2-2-2-2-2-4-4-4-|
     
|-----------------|-----------------|-----------------|-----------------|
|-----------------|-----------------|-----------------|-----------------|
|-----------------|-----------------|-----------------|-----------------|
|-0-0-0-0-0-0-0-0-|-0-0-0-0-0-4-4-4-|-2-2-2-2-2-2-2-2-|-9-9-9-9-9-------|
|-0-0-0-0-0-0-0-0-|-0-0-0-0-0-4-4-4-|-2-2-2-2-2-2-2-2-|-7-7-7-7-7-------|
|-0-0-0-0-0-0-0-0-|-0-0-0-0-0-4-4-4-|-2-2-2-2-2-2-2-2-|-7-7-7-7-6-------|
     

(2:55) CHORUS PT. 1

(3:06) CHORUS PT. 2

(3:17) POST-CHORUS

|----------------------------------------------------------------------------|

***GUITAR II (LEAD GUITAR)***

(0:00) Song starts with mariachi intro

(0:14) INTRO
|-------------------------|-------------------------|
|-------------------------|-------------------------|
|-------------------------|-------------------------|
|--------------9-11--9-11-|-------------------------|
|-12-12----12-------------|-11-11----11-11-11----11-|
|-------------------------|-------------------------|
      
|-------------------------|-------------------------|
|-------------------------|-------------------------|
|-------------------------|-------------------------|
|--------------9-11--9-11-|-------------------------|
|-12-12----12-------------|--9--9-----9--9--9-------|
|-------------------------|-------------------------|
     
|-------------------------|-------------------------|
|-------------------------|-------------------------|
|-------------------------|-------------------------|
|--------------9-11--9-11-|-------------------------|
|-12-12----12-------------|-11-11----11-11-11----11-|
|-------------------------|-------------------------|

|-------------------------|-------------------------|
|-------------------------|-------------------------|
|-------------------------|--------------6--9--9----|
|--------------9-11--9-11-|--------7--9-------------|
|-12-12----12-------------|--7--9-------------------|
|-------------------------|-------------------------|
     

(0:25) VERSE (Does not play)

(0:36) VERSE (Comes in during "I waited eight long months...")
|-------------------------|-------------------------|
|--7-----7--7-7-7-10-7-10-|--7-----7--7-7-7-10-7-10-|
|-------------------------|-------------------------|
|-------------------------|-------------------------|
|-------------------------|-------------------------|
|-------------------------|-------------------------|
   *     *  * * *    *       *     *  * * *    *    
|-------------------------|-------------------------|
|--7-----7--7-7-7-10-7-10-|--7-----7--7-7-7-5--5--5-|
|-------------------------|-------------------------|
|-------------------------|-------------------------|
|-------------------------|-------------------------|
|-------------------------|-------------------------|
   *     *  * * *    *       *     *  * * *    *
|-------------------------|-------------------------|
|--7-----7--7-7-7-10-7-10-|--7-----7--7-7-7-10-7-10-|
|-------------------------|-------------------------|
|-------------------------|-------------------------|
|-------------------------|-------------------------|
|-------------------------|-------------------------|
   *     *  * * *    *       *     *  * * *    *    


|-------------------------|--7-----7--7-7-7/9--9----|
|--7-----7--7-7-7-10-7-10-|-------------------------|
|-------------------------|-------------------------|
|-------------------------|-------------------------|
|-------------------------|-------------------------|
|-------------------------|-------------------------|
   *     *  * * *    *       *     *  * *   

PRE-
|-----------------|-----------------|
|-----------------|-----------------|
|-----------------|-----------------|
|-4-4-4-4-4-4-4-4-|-2-2-2-2-2-------|
|-4-4-4-4-4-4-4-4-|-2-2-2-2-2-------|
|-4-4-4-4-4-4-4-4-|-2-2-2-2-2-------|
  * * * * * * * *   * * * * *  
    

(0:50) CHORUS PT. 1 SAME AS GTR I

(1:01) CHORUS PT. 2
|-------------------------|-------------------------|
|-------------------------|-------------------------|
|-11----11----11----11----|-11----11----11-14-14-14-|
|--x-----x-----x-----x----|--x-----x-----x--x--x--x-|
|--9-----9-----9-----9----|--9-----9-----9-12-12-12-|
|-------------------------|-------------------------|
      
|-------------------------|-------------------------|
|-------------------------|-------------------------|
|-13----13----13----13----|-13----13----13-14-14-14-|
|--x-----x-----x-----x----|--x-----x-----x--x--x--x-|
|-11----11----11----11----|-11----11----11-12-12-12-|
|-------------------------|-------------------------|
     
|-------------------------|-------------------------|
|-------------------------|-------------------------|
|-11----11----11----11----|-11----11----11-14-14-14-|
|--x-----x-----x-----x----|--x-----x-----x--x--x--x-|
|--9-----9-----9-----9----|--9-----9-----9-12-12-12-|
|-------------------------|-------------------------|

|-------------------------|-------------------------|
|-------------------------|-------------------------|
|-13----13----13----13----|-18-18-18-18-16----------|
|--x-----x-----x-----x----|--x--x--x--x--x----------|
|-11----11----11----11----|-16-16-16-16-14----------|
|-------------------------|-------------------------|
    

(1:12) POST-CHORUS
|-------------------------|-------------------------|
|-------------------------|-------------------------|
|-------------------------|-------------------------|
|--------------9-11--9-11-|-------------------------|
|-12-12----12-------------|-11-11----11-11-11----11-|
|-------------------------|-------------------------|
      
|-------------------------|-------------------------|
|-------------------------|-------------------------|
|-------------------------|-------------------------|
|--------------9-11--9-11-|-------------------------|
|-12-12----12-------------|--9--9-----9--9--9-------|
|-------------------------|-------------------------|


(1:18) VERSE (Does not play)

(1:29) VERSE (Comes in here)

(1:40) PRE-CHORUS

(1:43) CHORUS PT. 1 (Does not play)

(1:54) CHORUS PT. 2

(2:05) BRIDGE (Clean) - Play x4
|-----------------|-----------------|-----------------|-----------------|
|-----------------|-------------0---|-------------0---|-----------------|
|-------9-----6---|-------9---------|-------9---------|-----------------|
|-----7-----------|-----7-----------|-----7-----------|---------7-------|
|-----------------|-----------------|-----------------|-----------------|
|-----------------|-----------------|-----------------|-----------------|
    

(2:27) SOLO PT. 1 - Play |-------------------------|-------------------------|
|-------------------------|-------------------------|
|--9--11-11-11-11-11-11-11|-9--11-11-11-11-11-11-11-|
|-------------------------|-------------------------|
|-------------------------|-------------------------|
|-------------------------|-------------------------|
    
|-------------------------|-------------------------|
|-------------------------|-15-15-15-15-14-14-14-14-|
|-9--11-11-11-11-11-11-11-|-------------------------|
|-------------------------|-------------------------|
|-------------------------|-------------------------|
|-------------------------|-------------------------|
   

(2:38) SOLO PT. 2

|-------------------------|-------------------------|
|-17-17-17-17-17-17-17-17-|-15-15-15-15-15-15-15-15-|
|-------------------------|-------------------------|
|-------------------------|-------------------------|
|-------------------------|-------------------------|
|-------------------------|-------------------------|
      
|-------------------------|-------------------------|
|-13-13-13-13-13-13-13-13-|--12-12-12-12-12-12-12-12|
|-------------------------|-------------------------|
|-------------------------|-------------------------|
|-------------------------|-------------------------|
|-------------------------|-------------------------|

|-------------------------|-------------------------|
|-17-17-17-17-17-17-17-17-|-19-19-19-19-19-19-19-19-|
|-------------------------|-------------------------|
|-------------------------|-------------------------|
|-------------------------|-------------------------|
|-------------------------|-------------------------|
      
|-------------19-19-21-21-|-------------------------|
|-22-22-22-22-------------|-21-21-21-21-21----------|
|-------------------------|-------------------------|
|-------------------------|-------------------------|
|-------------------------|-------------------------|
|-------------------------|-------------------------|
     

(2:55) CHORUS PT. 1

(3:06) CHORUS PT. 2

(3:17) POST-CHORUS

|--------------------------------------------------------------------------|
                    When It Rains Tab
|--------------------------------------------------------------------------|


TUNING - eb Bb Gb Db Ab Eb

Intro- 
1.Guitar1 - C#m 2x delay

2.Guitar1 - A C#m-E   A B-C#m  2X  E

Guitar2

|------12---12---14---1416---|------12----12-----------------|
|-10h12--12---12----12----12-|-10h12---12----12-10-12-10--9--|
|----------------------------|-------------------------------|
|----------------------------|-------------------------------|2x
|----------------------------|-------------------------------|
|----------------------------|-------------------------------|




Verse- C#m  A  E  2X          
And when it rains,
On this side of town it touches, everything.
Just say it again and mean it.
We don't miss a thing.


Refrain-  
F#m                                                    E
You made yourself a bed at the bottom of the blackest hole (blackest hole)
 F#m                                                                E 
And convinced yourself that it's not the reason you don't see the sun anymore.


Chorus-
  A         C#m             E   
And oh, oh, how could you do it?
 A     B                C#m  
Oh I, I never saw it coming.
  A         C#m             E  
And oh, oh, I need the ending.
  A               B                C#m             E
So why can't you stay just long enough to explain?

Do Verse
And when it rains,
Will you always find an escape?
Just running away,

Do refrain
From all of the ones who love you, from everything.
You made yourself a bed at the bottom of the blackest hole (blackest hole)
And you'll sleep 'til May and you'll say that you don't wanna see the sun anymore.

Do Chorus-

And oh, oh, how could you do it?
Oh I, I never saw it coming.
And oh, oh, I need the ending.
So why can't you stay just long enough to explain?
Take your time.
Take my time.


Bridge-
                                        F#m   E    A      
Take these chances to turn it around. (take your time)
                                         F#m   E    A   
Take these chances, we'll make it somehow
                                           F#m   E   A  
And take these chances to turn it around. (take my...)
Just turn it around.

Bridge end-

|-9----|
|--9-10|
|------|
|------|
|------|
|------|

Do chorus 1x
Oh, how could you do it?
Oh I, I never saw it coming.

Do chorus 3x
Oh, oh, how could you do it?
Oh I, I never saw it coming.
Oh, oh, how could you do it?
Oh I, I never saw it coming.
Oh, oh I need an ending.
So why can't you stay just long enough to explain?

F#m              E
You can take your time,
A 
Take my time. 

GUITAR2 END

|-121212121212-16161616161616-|------------|
|-----------------------------|------------|
|-----------------------------|-2-2-2------|
|-----------------------------|-2-2-2------|
|-----------------------------|-0-0-0------|
|-----------------------------|------------|


|--------------------------------------------------------------------------|
                    Let The Flames Begin
|--------------------------------------------------------------------------|



Tuning- eb bb gb db Ab Db

Intro-
Guitar1
|------------------------------------------------------------------------|
|------------------------------------------------------------------------|
|----0----0----0----0---0---0---0---0----0----0----0----0----0----0----0-|
|-12---12---12---12---9---9---9---9---10---10---10---10---10---10---10---|4x
|------------------------------------------------------------------------|
|------------------------------------------------------------------------|


Guitar2 at 3rd time
|------6-6----------------|------6-6-------------------------|
|------------6------------|------------6------8--------------|
|---7------------7--5-----|---7------------7-----------------|
|-8-----------------------|-8--------------------------------|
|-------------------------|----------------------------------|
|-------------------------|----------------------------------|


Verse-

Guitar1
|------------------------------------------------------------------------|
|------------------------------------------------------------------------|
|----0----0----0----0---0---0---0---0----0----0----0----0----0----0----0-|
|-12---12---12---12---9---9---9---9---10---10---10---10---10---10---10---|4x
|------------------------------------------------------------------------|
|------------------------------------------------------------------------|


Guitar2 at 3rd time
|------6-6----------------|------6-6-------------------------|
|------------6------------|------------6------8--------------|
|---7------------7--5-----|---7------------7-----------------|
|-8-----------------------|-8--------------------------------|
|-------------------------|----------------------------------|
|-------------------------|----------------------------------|

Refrain-
Guitar1

|-------------------------------------------------------|
|-------------------------------------------------------|
|----10~----------------10~-----------------------------|
|--10~-----------------10~------------------------------|
|-8~------------------8~--------------------------------|
|-------------------------------------------------------|

Guitar2
|-------------------------------------------------------|
|--555-333--222-0000--555--333--------------------------|
|------------------------------2222-44444---------------|
|-------------------------------------------------------|
|-------------------------------------------------------|
|-------------------------------------------------------|


Chorus-
Guitar1
|-------------------------------------------------------|
|-------------------------------------------------------|
|-----------33333333------------55-5--5--5--------------|
|-555555555-33333333-111111111--55-5--5--5--------------|
|-555555555-11111111-111111111--33-3--3--3--------------|
|-555555555----------111111111--------------------------|
Guitar2
|-------------------------------------------------------|
|-------------------------------------------------------|
|-15151515-14/15---15151515-14/15-15-15-15-15-15--------|
|-x-x-x-x--x--x----x-x-x-x--x--x--x--x--x--x--x---------|
|-13131313-12/13---13131313-12/13-13-13-13-13-13--------|
|-------------------------------------------------------|


RepeaT VERSE 1x, Refrain , Chorus2x 

Interlude
Guitar2 2x
|-10----------------------------|  -----------|
|-------------------------------|  -----------|
|---12-10h12--10----------------|  -----------|
|----------------8--8p7h8-------|3x-7-8-s-10--|  
|-------------------------10-10-|  -----------|
|-------------------------------|  -----------|

Repeat Chorus 2x

Outro-
Guitar2 2x
|-10----------------------------|  -----------|
|-------------------------------|  -----------|
|---12-10h12--10----------------|  -----------|
|----------------8--8p7h8-------|3x-7-8-s-10--|
|-------------------------10-10-|  -----------|
|-------------------------------|  -----------|





|--------------------------------------------------------------------------|
                                Miracle  
|--------------------------------------------------------------------------|



Guitar1(e b g d A E)

Guitar2(e b g d A E)

Guitar3 - keyboard? 
INTRO-

Guitar1
|-------------------------------------------------|  |----------|
|-------------------------------------------------|  |----------|
|--6666666--------666666-444444-------------------|  |----------|
|--6666666-777777-666666-444444-777777--2-2-4-4---|2x|----7~----|
|--4444444-777777-444444-222222-777777--2-2-4-4---|  |----7~----|
|----------555555---------------555555--0-0-2-2---|  |----5~----|


Guitar2
|----------------------|-----------|----------|-44--------|-77-44--------|
|------------------777-|-----------|----------|-----------|--------4h5p4-|
|-------999------------|-------999-|-99998888-|---44-6666-|------4-------|
|-666-77----666-77-----|-666-77----|----------|-----------|--------------|2x
|----------------------|-----------|----------|-----------|--------------|
|----------------------|-----------|----------|-----------|--------------|

|---------|
|---------|
|----6~---|
|----6~---|
|----4~---|
|---------|

Verse-
Guitar1 P.M.
|---------------------|-----------------------------|
|---------------------|-----------------------------|
|---------------------|-----------------------------|
|---------------------|-----------------------------|4x
|--7777777-9999-6666--|---7777777--9999999----------|
|--5555555-7777-4444--|---5555555--7777777----------|

Guitar2
|---x---x-----x---x---|---x---x-----x---x---|
|---9---9-----7---7---|---9---9-----7---7---|
|---9---9-----8---8---|---9---9-----8---8---|4x
|---11--11----9---9---|---11--11----9---9---|
|---x---x-----x---x---|---x---x-----x---x---|
|---x---x-----x---x---|---x---x-----x---x---|

Guitar3(Not sure)at the 3rd time-

|-------------------------------------------------|
|-------------------12----------------------------|
|--9p8h9p8---9p8h9------9p8h9p8--9p8h9p11---------|
|-------------------------------------------------|2x
|-------------------------------------------------|
|-------------------------------------------------|

Pre Chorus-
G1 & G2

|---------------------|
|---------------------|
|---------------------|hold
|--2---2----6---6-----|
|--2---2----6---6-----|
|--0---0----2---2-----|

Chorus

Guitar1
|-------------------------------------------------|  |----------|
|-------------------------------------------------|  |----------|
|--6666666--------666666-444444-------------------|  |----------|
|--6666666-777777-666666-444444-777777--2-2-4-4---|2x|----7~----|
|--4444444-777777-444444-222222-777777--2-2-4-4---|  |----7~----|
|----------555555---------------555555--0-0-2-2---|  |----5~----|

Guitar2
|----------------------|-----------|----------|-44--------|-77-44--------|
|------------------777-|-----------|----------|-----------|--------4h5p4-|
|-------999------------|-------999-|-99998888-|---44-6666-|------4-------|
|-666-77----666-77-----|-666-77----|----------|-----------|--------------|2x
|----------------------|-----------|----------|-----------|--------------|
|----------------------|-----------|----------|-----------|--------------|

|---------|
|---------|
|----6~---|
|----6~---|
|----4~---|
|---------|

Repeat verse-

Pre Chorus-
G1 & G2

|---------------------|
|---------------------|
|---------------------|
|--2-2--6-6--7-7--9-9-|
|--2-2--6-6--7-7--9-9-|
|--0-0--2-2--5-5--7-7-|



Guitar1
|-------------------------------------------------|  |-----|---|
|-------------------------------------------------|  |-----|---|
|--6666666--------666666-444444-------------------|  |-----|---|
|--6666666-777777-666666-444444-777777--2-2-4-4---|2x|--7~-|---|
|--4444444-777777-444444-222222-777777--2-2-4-4---|  |--7~-|---|
|----------555555---------------555555--0-0-2-2---|  |--5~-|---|


Guitar2
|----------------------|-----------|----------|-44--------|-77-44--------|
|------------------777-|-----------|----------|-----------|--------4h5p4-|
|-------999------------|-------999-|-99998888-|---44-6666-|------4-------|
|-666-77----666-77-----|-666-77----|----------|-----------|--------------|2x
|----------------------|-----------|----------|-----------|--------------|
|----------------------|-----------|----------|-----------|--------------|

|---------|
|---------|
|----6~---|
|----6~---|
|----4~---|
|---------|


Bridge-
1.
Guitar1

|------------------------|-----------------------|
|------------------------|-----------------------|
|-6666666666666666666666-|----------444444-------|
|-6666666666666666666666-|---22222--444444-------|
|-4444444444444444444444-|---22222--222222-------|
|------------------------|---00000---------------|

Guitar2
|------------------------|---------------------|
|------------------------|---------------------|
|-1313131313131313131313-|---99999-------------|
|-xxxxxxxxxxxxxxxxxxxxxx-|---99999--999999-----|
|-1111111111111111111111-|---77777--999999-----|
|------------------------|----------777777-----|

2.
Guitar1
|-----------|-----------|-----------|------------|-----------------------|
|-----------|-----------|-----------|------------|-----------------------|
|-6-6-6-6-6-|-6-6-6-6-6-|-6-6-6-6-6-|-6-6-6-6-6--|----------444444-------|
|-6-6-6-6-6-|-6-6-6-6-6-|-6-6-6-6-6-|-6-6-6-6-6--|---22222--444444-------|
|-4-4-4-4-4-|-4-4-4-4-4-|-4-4-4-4-4-|-4-4-4-4-4--|---22222--222222-------|
|-----------|-----------|-----------|------------|---00000---------------|

Guitar2
|----------------|-----------------|  |---------------------|
|----------------|-----------------|  |---------------------|
|-13-13-13-13-13-|-13-13-13-13-13--|  |---99999-------------|
|-xx-xx-xx-xx-xx-|-xx-xx-xx-xx-xx--|2x|---99999--999999-----|
|-11-11-11-11-11-|-11-11-11-11-11--|  |---77777--999999-----|
|----------------|-----------------|  |----------777777-----|

3.
Guitar1
|-----------|-----------|-----------|------------|-----------------------|
|-----------|-----------|-----------|------------|-----------------------|
|-6-6-6-6-6-|-6-6-6-6-6-|-6-6-6-6-6-|-6-6-6-6-6--|----------444444-------|
|-6-6-6-6-6-|-6-6-6-6-6-|-6-6-6-6-6-|-6-6-6-6-6--|---22222--444444-------|
|-4-4-4-4-4-|-4-4-4-4-4-|-4-4-4-4-4-|-4-4-4-4-4--|---22222--222222-------|
|-----------|-----------|-----------|------------|---00000---------------|

Guitar2
|----------------|--------------------|  |---------------------|
|----------------|--------------------|  |---------------------|
|-13-13-13-13-13-|-13-13-13-13-13-----|  |---99999-------------|
|-xx-xx-xx-xx-xx-|-xx-xx-xx-xx-xx-----|2x|---99999--999999-----|
|-11-11-11-11-11-|-11-11-11-11-11--7*-|  |---77777--999999-----|
|----------------|--------------------|  |----------777777-----|

Do verse-
Guitar1
|-------------------------------------------------|  |---|---|
|-------------------------------------------------|  |---|---|
|--6666666--------666666-444444-------------------|  |---|---|
|--6666666-777777-666666-444444-777777--2-2-4-4---|2x|---|---|
|--4444444-777777-444444-222222-777777--2-2-4-4---|  |---|---|
|----------555555---------------555555--0-0-2-2---|  |---|---|

Guitar2
Guitar2
|----------------------|-----------|----------|-44--------|-77-44--------|
|------------------777-|-----------|----------|-----------|--------4h5p4-|
|-------999------------|-------999-|-99998888-|---44-6666-|------4-------|
|-666-77----666-77-----|-666-77----|----------|-----------|--------------|2x
|----------------------|-----------|----------|-----------|--------------|
|----------------------|-----------|----------|-----------|--------------|


Outro-

|------------------|---------------|
|------------------|---------------|
|------------------|--66666666666--|
|--7777777777777---|--66666666666--|2x
|--7777777777777---|--44444444444--|
|--5555555555555---|---------------|

|-----------|
|-----------|
|-----------|
|---7~------|end
|---7~------|
|---5~------|



|--------------------------------------------------------------------------|
                    Crushcrushcrush 
|--------------------------------------------------------------------------|
[Intro]

D#|-------------|
A#|-------------|
F#|---6-6-6-----|
C#|---7-7-7-----|
G#|---4-4-4-----|
C#|-------------|


[Verse]

Guitar1

D#|-------------------------------------------|
A#|-------------------------------------------|
F#|-------------------------------------------|
C#|--77777777-10101010-55555555-77777777------|
G#|--55555555-88888888-33333333-55555555------|
C#|-------------------------------------------|
   ******** ******** ******** ********

|-------------------------------------------|
|-------------------------------------------|
|-------------------------------------------|
|--77777777-10101010-555555555555-----------|
|--55555555-88888888-333333333333-----------|
|-------------------------------------------|
   ******** ******** ************

Guitar2

D#|---------------------------------------------|
A#|---------------------------------------------|
F#|-77-99-77-99--77-99--77-99--77-99------------|
C#|---------------------------------------------|
G#|---------------------------------------------|
C#|---------------------------------------------|
  ** ** ** **  ** **  ** **  ** **


[Refrain 1]


  Guitar2
D#|-------------------------|------------------------------|
A#|-----3~----5~------6~----|--3~----5~------6~------------|
F#|-----3~----5~------7~----|--3~----5~------7~------------|
C#|-----3~----5~------7~----|--3~----5~------7~------------|
G#|-----1~----3~------5~----|--1~----3~------5~------------|
C#|-------------------------|------------------------------|

  
[Interlude 1]

  G1
D#|-------------------------------------------|
A#|-------------------------------------------|
F#|-------------------------------------------|
C#|----88---888----877-77---------------------|
G#|----88---888----877-77-----(BREAK)---------|
C#|----88---888----877-77---------------------|

  G2
D#|----12-13-12--------13--12-----------------|
A#|------------13-----------------------------|
F#|---------------12--------------------------|
C#|-------------------------------------------|
G#|-------------------------------------------|
C#|-------------------------------------------|


[Refrain 2]

     crush...............crush...

  Gtr1
D#|-------------------------------------------|
A#|-------------------------------------------|
F#|-------------------------------------------|
C#|-----0~-----------------0~-----------------|
G#|-----0~-----------------0~-----------------|
C#|-----0~-----------------0~-----------------|

  Gtr2
D#|-------------------------------------------|
A#|-------------------------------------------|
F#|------7~-----------------7~----------------|
C#|------7~-----------------7~----------------|
G#|------0~-----------------0~----------------|
C#|------0~-----------------0~----------------|


  [Chorus]

  Gtr1
D#|--------------------|-----------------------|
A#|--------------------|-----------------------|
F#|--------------------|-----------------------|
C#|--00----33-----5~---|--88----00----5~-------|
G#|--00----33-----3~---|--88----00----3~-------|
C#|--00----33----------|--88----00-------------|

D#|--------------------|------------------------------|
A#|--------------------|------------------------------|
F#|--------------------|------------------------------|
C#|--00----33-----5~---|--88888888-1010101010---------|
G#|--00----33-----3~---|--88888888-1010101010-(break)-|
C#|--00----33----------|--88888888-1010101010---------|

  Gtr2
D#|--------------------|-----------------------|
A#|--------------------|-----------------------|
F#|--------------------|-----------------------|
C#|--77----33-----5~---|--88----77----5~-------|
G#|--55----33-----3~---|--88----55----3~-------|
C#|--------33----------|--88-------------------|

D#|--------------------|------------------------------|
A#|--------------------|------------------------------|
F#|--------------------|------------------------------|
C#|--77----33-----5~---|--88888888-1010101010---------|
G#|--55----33-----3~---|--88888888-1010101010-(break)-|
C#|--------33----------|--88888888-1010101010---------|

 
 [Interlude 2]

  G1
D#|---------------------------------|-------------------------------------|
A#|---------------------------------|-------------------------------------|
F#|---------------------------------|-------------------------6666--------|
C#|-----0--0--0---10-10-10-10-10----|-0--0--0-----10-10-10----7777--------|
G#|-----0--0--0---10-10-10-10-10----|-0--0--0-----10-10-10----4444--------|
C#|-----0--0--0---10-10-10-10-10----|-0--0--0-----10-10-10----------------|

  G2
D#|---------------------------------|-------------------------------------|
A#|---------------------------------|-------------------------------------|
F#|---------------------------------|-------------------------------------|
C#|-----7-8-7-----------------------|7-8-7---------------------12~--------|
G#|-----------10-8---7-8-7----------|-------10-8---7-8-7------------------|
C#|-----------------------10-8--8-8-|---------------------10-8------------|

  or
  G2
D#|---------------------------------|-------------------------------------|
A#|-10-12-10------------------------|-10-12-10-----------------------15~--|
F#|---------12-10-9-10-9------------|---------12-10-9-10-9----------------|
C#|---------------------12-10-10-10-|----------------------12-10----------|
G#|---------------------------------|-------------------------------------|
C#|---------------------------------|-------------------------------------|

repeat verse,ref1,interlude1,ref2,do chorus,


  [Bridge]

  G1
D#|----------------------------------------------------|
A#|----------------------------------------------------|
F#|----------------------------------------------------|
C#|--0---3---5---33/---0---3---5----33/----------------|4x
G#|--0---3---3---11/---0---3---3----11/----------------|
C#|--0---3-------------0---3---------------------------|

  enters at pt3
  Guitar2
D#|-131313-121212-101010-101010101010-|
A#|-101010-101010-101010-101010101010-|3x
F#|-----------------------------------|
C#|-----------------------------------|
G#|-----------------------------------|
C#|-----------------------------------|


do Chorus-


  [Chorus 2]

  Gtr1
D#|--------------------|-----------------------|
A#|--------------------|-----------------------|
F#|--------------------|------------------6666-|
C#|--00----33-----5~---|--88----00----5~-x7777-|
G#|--00----33-----3~---|--88----00----3~-x4444-|
C#|--00----33----------|--88----00-------------|

D#|--------------------|------------------------------|
A#|--------------------|------------------------------|
F#|--------------------|------------------------------|
C#|--00----33-----5~---|--88888888-1010101010---------|
G#|--00----33-----3~---|--88888888-1010101010---------|
C#|--00----33----------|--88888888-1010101010---------|

  Gtr2
D#|--------------------|-----------------------|
A#|--------------------|-----------------------|
F#|--------------------|-----------------------|
C#|--77----33-----5~---|--88----77----5~--6666-|
G#|--55----33-----3~---|--88----55----3~--4444-|
C#|--------33----------|--88-------------------|

D#|--------------------|------------------------------|
A#|--------------------|------------------------------|
F#|--------------------|------------------------------|
C#|--77----33-----5~---|--88888888-1010101010---------|
G#|--55----33-----3~---|--88888888-1010101010-------)-|
C#|--------33----------|--88888888-1010101010---------|


  [Outro]

  GUITAR1
D#|--------------------------------------------------------------|
A#|--------------------------------------------------------------|
F#|--77777777-66666666-55555555-44444444-3333333-55555666---7----|
C#|--77777777-77777777-55555555-55555555-3333333-55555777---7----|END
G#|--55555555-44444444-33333333-22222222-1111111-33333444---5----|
C#|--------------------------------------------------------------|

Guitar2-not sure

D#|-12^(13)-12~--12^(13)-12~----10-12~-12^(13)-12~--10-10~-------|
A#|--------------------------------------------------------------|
F#|--------------------------------------------------------------|
C#|--------------------------------------------------------------|
G#|--------------------------------------------------------------|
C#|--------------------------------------------------------------|

D#|-13----------10----13-12---13-15-13-15--17-18-17-18--22~-s----|
A#|----10-11-10----13--------------------------------------------| 
F#|--------------------------------------------------------------|
C#|--------------------------------------------------------------| 
G#|--------------------------------------------------------------|
C#|--------------------------------------------------------------|



|--------------------------------------------------------------------------|
                    we are broken-leavethepieces
|--------------------------------------------------------------------------|
tuning-half step down
Cadd9 Em7
 I am outside
               G               Cadd9
 And I've been waiting for the sun
         Em7
 With my wide eyes
           G                    Cadd9
 I've seen worlds that don't belong
          Em7                 G            Cadd9
 My mouth is dry with words I cannot verbalize
       Em7            G  
 Tell me why we live like this

C        Em      D
 Keep me safe inside
                   C
 Your arms like towers
       Em   D
 Tower over me, yeah


Em7           G
 Cause we are broken
D
 What must we do to restore
Em7  G
 Our innocence
D                        C
 And oh, the promise we adored
         Em         
 Give us life again
C              Em       G
 Cause we just wanna be whole


Cadd9     Em7
 Lock the doors
                 G
 Cause I like to capture this voice
Cadd9       Em7
 It came to me tonight
         G               Cadd9
 So everyone will have a choice
           Em7
 And under red lights
             G              Cadd9
 I'll show myself it wasn't forged
       Em7
 We're at war
         G
 We live like this


C        Em      D
 Keep me safe inside
                   C
 Your arms like towers
       Em   D
 Tower over me


Em7           G
 Cause we are broken
D
 What must we do to restore
Em7  G
 Our innocence
D                        C
 And oh, the promise we adored
         Em         
 Give us life again
C              Em       G
 Cause we just wanna be whole


Bb F C x2

Bb     F    C (F)
 Tower over me
Bb     F    C  D
 Tower over me

D
 And I'll take the truth at any cost


Em7           G
 Cause we are broken
D
 What must we do to restore
Em7  G
 Our innocence
D                        C
 And oh, the promise we adored
         Em         
 Give us life again
C              Em       G
 Cause we just wanna be whole

|--------------------------------------------------------------------------|
                            fences
|--------------------------------------------------------------------------|
Guitar1(e b g d A E)

Guitar2(e b g d A E)

INTRO-

GUITAR1

|--------2~----|--------2~----|
|-------3~-----|-------3~-----|
|------4~------|------4~------|
|-----4~-------|-----4~-------|
|----2~--------|----2~--------|
|--------------|--------------|

Verse-

|--------2~----|--------2~----|
|-------3~-----|-------3~-----|
|------4~------|------4~------|
|-----4~-------|-----4~-------|
|----2~--------|----2~--------|
|--------------|--------------|

REFRAIN1

|--x-x-x-x-x-x--|--x-x-x-x-x--|
|--8-8-8-8-8-8--|--5-5-5-5-5--|
|--9-9-9-9-9-9--|--6-6-6-6-6--|
|--9-9-9-9-9-9--|--7-7-7-7-7--|
|--7-7-7-7-7-7--|--7-7-7-7-7--|
|---------------|--5-5-5-5-5--|

VERSE2-

|-------2~----|
|------3~-----|
|-----4~------|
|----4~-------|
|---2~--------|
|-------------|

REFRAIN2
|--------|------|-------|---------|-----------|
|--------|------|-------|---------|-----------|
|-----9~-|---7~-|----6~-|-----9~--|------6~---|
|----9~--|--7~--|---7~--|----9~---|-----7~----|
|---7~---|-5~---|--7~---|---7~----|----7~-----|
|--------|------|-5~----|---------|---5~------|


Chorus-
Guitar1
|----------------------------|--------|--------|
|----------------------------|--------|--------|
|--4-------------------------|--------|--------|
|--4-------------------------|--5-----|--2--4--|2x
|--2-------------------------|--5-----|--2--4--|
|----------------------------|--3-----|--0--2--|

Guitar2
|--1010101010-9-9-9-9--7777--|--------|
|--1212121212-12121212-7777--|---7777-|
|----------------------------|---7777-|
|----------------------------|--------|2x
|----------------------------|--------|
|----------------------------|--------|



Guitar1 & 2
|------------|--------------|
|------------|--------------|
|------------|--------------|
|--5-555555--|--2--2--2--2--|
|--5-555555--|--2--2--2--2--|
|--3-333333--|--0--0--0--0--|


|--------------------X---|
|--------------------X---|
|--------------------X---|
|--5-5555555-7777-8--X---|
|--5-5555555-7777-8--X---|
|--3-3333333-5555-6--X---|

Continued..
Guitar1
|--------2~----|--------2~----|
|-------3~-----|-------3~-----|
|------4~------|------4~------|
|-----4~-------|-----4~-------|
|----2~--------|----2~--------|
|--------------|--------------|


Verse-

|--------2~----|--------2~----|
|-------3~-----|-------3~-----|
|------4~------|------4~------|
|-----4~-------|-----4~-------|
|----2~--------|----2~--------|
|--------------|--------------|

REFRAIN1
|--x-x-x-x-x-x--|--x-x-x-x-x--|
|--8-8-8-8-8-8--|--5-5-5-5-5--|
|--9-9-9-9-9-9--|--6-6-6-6-6--|
|--9-9-9-9-9-9--|--7-7-7-7-7--|
|--7-7-7-7-7-7--|--7-7-7-7-7--|
|---------------|--5-5-5-5-5--|

REFRAIN2
|--------|------|-------|---------|-----------|
|--------|------|-------|---------|-----------|
|-----9~-|---7~-|----6~-|-----9~--|------6~---|
|----9~--|--7~--|---7~--|----9~---|-----7~----|
|---7~---|-5~---|--7~---|---7~----|----7~-----|
|--------|------|-5~----|---------|---5~------|


Repeat Chorus
Then

|-----------|-----------|-----------|-----------|
|-----------|-----------|-----------|-----------|
|-----------|-----------|---7---7---|-----------|
|---2---2---|---5---5---|---7---7---|---7---7---|
|---2---2---|---5---5---|---5---5---|---7---7---|
|---0---0---|---3---3---|-----------|---5---5---|


|-----------|-----------|-----------|-----------|
|-----------|-----------|-----------|-----------|
|-----------|-----------|---7---7---|-----------|
|---2---2---|---5---5---|---7---7---|---8---8---|
|---2---2---|---5---5---|---5---5---|---8---8---|
|---0---0---|---3---3---|-----------|---6---6---|



Solo-
1.
Guitar1
|-----------------------------------------------------|
|-----------------------------------------------------|
|-----------------------------------------------------|
|--9-9-9-9-8-8-8-8-7-7-7-7-6-6-6-6-5-5-5-5-5-5---5-7--|
|--9-9-9-9-8-8-8-8-7-7-7-7-6-6-6-6-5-5-5-5-5-5---5-7--|
|--7-7-7-7-6-6-6-6-5-5-5-5-4-4-4-4-3-3-3-3-3-3---3-5--|

Guitar2
|-----------------------------------------------------|
|-----------------------------------------------------|
|-----------------------------------------------------|
|----9^------7^-----9^-----7^-----9^--7^--------------|
|-----------------------------------------10^--9^-----|
|-----------------------------------------------------|


2.
Guitar1
|-----------------------------------------------------|
|-----------------------------------------------------|
|-----------------------------------------------------|
|--9-9-9-9-8-8-8-8-7-7-7-7-6-6-6-6-5-5-5-5-5-5---5-7--|
|--9-9-9-9-8-8-8-8-7-7-7-7-6-6-6-6-5-5-5-5-5-5---5-7--|
|--7-7-7-7-6-6-6-6-5-5-5-5-4-4-4-4-3-3-3-3-3-3---3-5--|

Guitar2
|----------------------------------------------|
|----------------------------------------------|
|----------------------------------------------|
|----9^------7^-----11^------9^-------12^------|
|----------------------------------------------|
|----------------------------------------------|


3.
Guitar1
|-------------|--------|--------|
|-------------|--------|--------|
|--4444444----|--------|--------|
|--4444444----|--55555-|--2--4--|2x
|--2222222----|--55555-|--2--4--|
|-------------|--33333-|--0--2--|

Guitar2
|--77777777-9999--10101010-1212121212121212-141414141414-121212---|
|--xxxxxxxx-xxxx--xxxxxxxx-xxxxxxxxxxxxxxxx-xxxxxxxxxxxx-xxxxxx---|
|--44444444-6666--7-7-7-7--9-9-9-9-9-9-9-9--111111111111-9-9-9----|
|-----------------------------------------------------------------|
|-----------------------------------------------------------------|
|-----------------------------------------------------------------|

Bridge
Guitar1

|-----------|-----------|-----------|-----------|
|-----------|-----------|-----------|-----------|
|-----------|-----------|---7---7---|-----------|
|---2---2---|---5---5---|---7---7---|---8---8~--|
|---2---2---|---5---5---|---5---5---|---8---8~--|
|---0---0---|---3---3---|-----------|---6---6~--|


Guitar2
|---------x-x-x-x--|---------x-x-x-x--|----------x-x-x-x-|--------x-x-x-x--|
|---------x-x-x-x--|---------x-x-x-x--|----------x-x-x-x-|--------x-x-x-x--|
|---------x-x-x-x--|---------x-x-x-x--|---7---7--x-x-x-x-|--------x-x-x-x--|
|---2---2-x-x-x-x--|---5---5-x-x-x-x--|---7---7--x-x-x-x-|--8---8-x-x-x-x--|
|---2---2-x-x-x-x--|---5---5-x-x-x-x--|---5---5--x-x-x-x-|--8---8-x-x-x-x--|
|---0---0-x-x-x-x--|---3---3-x-x-x-x--|------------------|--6---6-x-x-x-x--|

Chorus--
Guitar1
|----------------------------|--------|--------|
|----------------------------|--------|--------|
|--4-------------------------|--------|--------|
|--4-------------------------|--5-----|--2--4--|2x
|--2-------------------------|--5-----|--2--4--|
|----------------------------|--3-----|--0--2--|

Guitar2
|--1010101010-9-9-9-9--7777--|--------|
|--1212121212-12121212-7777--|---7777-|
|----------------------------|---7777-|
|----------------------------|--------|2x
|----------------------------|--------|
|----------------------------|--------|



Guitar1 & 2
|------------|--------------|
|------------|--------------|
|------------|--------------|
|--5-555555--|--2--2--2--2--|2x
|--5-555555--|--2--2--2--2--|
|--3-333333--|--0--0--0--0--|


|--------------------X---|
|--------------------X---|
|--------------------X---|
|--5-5555555-7777-8--X---|
|--5-5555555-7777-8--X---|
|--3-3333333-5555-6--X---|


OUTRO-

GUITAR1
|--------2~----|--------2~----|
|-------3~-----|-------3~-----|
|------4~------|------4~------|
|-----4~-------|-----4~-------|
|----2~--------|----2~--------|
|--------------|--------------|


|--------------------------------------------------------------------------|
                    Born for this
|--------------------------------------------------------------------------|

Tabbed by Paramorefans.com

the verse is a little weird...it'll be fixed asap.

TUNED HALF A STEP DOWN in Drop D (Db, Ab, Db, Gb, Bb, eb)

INTRO GTR 1 : TWO TIMES
eb|------------------------------------------------------------|
Bb|--7^8-5---------------------5---5---------------------------|
Gb|--------7--4^-----6-6-6-6---6---6---------------------------|
Db|-------------- 7--------------------------------------------|
Ab|------------------------------------------------------------|
Db|------------------------------------------------------------|

INTRO GTR 2 : TWO TIMES
eb|---------------------------------------------------------------|
Bb|---------------------------------------------------------------|
Gb|---------------------------------------------------------------|
Db|--9-------7-------0-------2------------------------------------|
Ab|--9-x6---7-x6---0-x6---2-x6------------------------------------|
Db|--9-------7-------0-------2------------------------------------|

break before the first verse :
eb|-------------------------------------------|
Bb|-------------------------------------------|
Gb|-11--x8------------------------------------|
Db|---9--x8-----------------------------------|
Ab|-------------------------------------------|
Db|-------------------------------------------|

Verse 1: "oh no..... [play twice]
eb|-----------------------------------------------------------------------------------|
Bb|-----------------------------------------------------------------------------------|
Gb|-11--x8------9--x4-----6-x4----11--x8----9--x8-----6----x4-------------------------|
Db|---9--x8------7--x4----4-x4-----9--x8-----7--x8-----4----x4------------------------|
Ab|-----------------------------------------------------------------------------------|
Db|-----------------------------------------------------------------------------------|


VERSE OUTRO GTR 1 "... It takes acquired minds.."[guitar one plays this twice]
eb|--------------------------------------------------------------------------------------|
Bb|--------------------------------------------------------------------------------------|
Gb|--------------------------------------------------------------------------------------|
Db|---2~---9~---5~---2-2-x-2-2-x-2-2-x-2-2-x-2-2-x-7-7-x-7-7-x-7-7-x-7-7-x-7-7-x-9~x-----|
Ab|---2~---9~---5~---2-2-x-2-2-x-2-2-x-2-2-x-2-2-x-7-7-x-7-7-x-7-7-x-7-7-x-7-7-x-9~x-x---|
Db|---2~---9~---5~---2-2-x-2-2-x-2-2-x-2-2-x-2-2-x-7-7-x-7-7-x-7-7-x-7-7-x-7-7-x-9~x-----|

VERSE OUTRO GTR 2 ".. we just want!" (pretty sure its accurate)
ebl---------------------9---10--12--10--9-----------7-7p5-9-10-10s12--10p9--|
Bbl---12--10--12--12---x----x---x---x---x-----------------------------------|
Gbl---11--11--11--11---11--11--11--11--11-----------------------------------|
Dbl---9---9---9---9---------------------------------------------------------|
Abl-------------------------------------------------------------------------|
Dbl-------------------------------------------------------------------------|


CHORUS GTR 1 "Everybody sing.."
eb|--------------------------------------------------------|
Bb|--------------------------------------------------------|
Gb|--------------------------------------------------------|
Db|--5xxx--000--444--5xxx--999--777-----------5~-----------|
Ab|--5xxx--000--444--5xxx--999--777----(x2)---5~-----------|
Db|--5xxx--000--444--5xxx--999--777-----------5~-----------|


CHORUS GTR 2 "..sing!" comes in at open chord, listen for it
eb|--------------------------------------------------------|
Bb|--------------------------------------------------------|
Gb|--11-----9------7------11-----9------7------------------|
Db|--x--x8--x--x8--x--x1--x--x8--x--x8--x--x16--repeat etc-|
Ab|--9------7------5------9------7------5------------------|
Db|--------------------------------------------------------|

VERSE - [play twice]
eb|-----------------------------------------------------------------------------------|
Bb|-----------------------------------------------------------------------------------|
Gb|-11--x8------9--x4-----6-x4----11--x8----9--x8-----6----x4-------------------------|
Db|---9--x8------7--x4----4-x4-----9--x8-----7--x8-----4----x4------------------------|
Ab|-----------------------------------------------------------------------------------|
Db|-----------------------------------------------------------------------------------|


VERSE OUTRO GTR 1 "... It takes acquired minds.."[guitar one plays this twice]
eb|--------------------------------------------------------------------------------------|
Bb|--------------------------------------------------------------------------------------|
Gb|--------------------------------------------------------------------------------------|
Db|---2~---9~---5~---2-2-x-2-2-x-2-2-x-2-2-x-2-2-x-7-7-x-7-7-x-7-7-x-7-7-x-7-7-x-9~x-----|
Ab|---2~---9~---5~---2-2-x-2-2-x-2-2-x-2-2-x-2-2-x-7-7-x-7-7-x-7-7-x-7-7-x-7-7-x-9~x-x---|
Db|---2~---9~---5~---2-2-x-2-2-x-2-2-x-2-2-x-2-2-x-7-7-x-7-7-x-7-7-x-7-7-x-7-7-x-9~x-----|

VERSE OUTRO GTR 2 ".. we just want!" (pretty sure its accurate)
ebl---------------------9---10--12--10--9-----------7-7p5-9-10-10s12--10p9--|
Bbl---12--10--12--12---x----x---x---x---x-----------------------------------|
Gbl---11--11--11--11---11--11--11--11--11-----------------------------------|
Dbl---9---9---9---9---------------------------------------------------------|
Abl-------------------------------------------------------------------------|
Dbl-------------------------------------------------------------------------|


CHORUS GTR 1 "Everybody sing.."
eb|--------------------------------------------------------|
Bb|--------------------------------------------------------|
Gb|--------------------------------------------------------|
Db|--5xxx--000--444--5xxx--999--777------------------------|
Ab|--5xxx--000--444--5xxx--999--777----(x2)----------------|
Db|--5xxx--000--444--5xxx--999--777------------------------|


CHORUS GTR 2 "..sing!" comes in at open chord, listen for it
eb|--------------------------------------------------------|
Bb|--------------------------------------------------------|
Gb|--11-----9------7------11-----9------7------------------|
Db|--x--x8--x--x8--x--x1--x--x8--x--x8--x--x16--repeat etc-|
Ab|--9------7------5------9------7------5------------------|
Db|--------------------------------------------------------|

BACK TO INTRO

INTRO GTR 1 : TWO TIMES
eb|--------------------------------------------------------|
Bb|--7^8-5------------------5---5--------------------------|
Gb|--------7--4-----6-6-6-6---6---6------------------------|
Db|--------------7-----------------------------------------|
Ab|--------------------------------------------------------|
Db|--------------------------------------------------------|

INTRO GTR 2 : TWO TIMES
eb|--------------------------------------------------------|
Bb|--------------------------------------------------------|
Gb|--------------------------------------------------------|
Db|--9-----7-----0-----2-----------------------------------|
Ab|--9-x6--7-x6--0-x6--2-x6--------------------------------|
Db|--9-----7-----0-----2-----------------------------------|

BRIDGE: GTR 1 ".. alright so you think you're ready.."

eb|----------------------------------------------------------------------------------------|
Bb|----------------------------------------------------------------------------------------|
Gb|------------------------------------------------------------------------------19--------|
Db|---5~--7~--9-----------xxx2---xxx5~--7~--9~--xxx2--xxx5--xxx7--xxx5~---4------x--x16----|
Ab|---5~--7~--9slide back-xxx2---xxx5~--7~--9~--xxx2--xxx5--xxx7--xxx5~---4x12---17--------|
Db|---5~--7~--9-----------xxx2---xxx5~--7~--9~--xxx2--xxx5--xxx7--xxx5~---4----------------|

            
            
Suggest correction
Creating personal tab
Creating personal tab
You can edit any tab online and save it as your Personal.

You can edit, replace or remove any tab part or add personal notes – all changes will be seen only by you.

Personal tabs can be accessed anytime from any device, even offline.
Learn more »
comments
print report bad tab
16 comments total. Showing first comments.
0 reply
HH_Emo_666 242 Nov 14, 2007 02:18 PM

this looks rly good but i think you should at least give the tabbers credit for taking their tabs

+1 reply
doobidoo 6,272 Nov 14, 2007 07:23 PM

thats y ive included their name next to the title..and also 8 of the songs are my tabs ...

0 reply
francis hilera 10 Nov 14, 2007 08:16 PM

5* for that tnx man

guest
You may want to rate the tab now too:
select rating
Wanna post a correction for this tab? Suggest correction