Oops, an error
Loading. Please wait.
We have an official Still Into You tab made by UG professional guitarists. Check out the tab »
×
83,189 views 201 this week
11 commentsread comments
1 2 3 4 5
x 47
add to favorites
×
Save as Personal and add changes to this tab that will be seen only by you. Learn more ›
×
You can save this tab as Personal to edit and correct it or add notes. All changes will be seen only by you. Learn more »
launch autoscroll
font size
0
reset
guitar tuner
backing track
0:00
0:00
edit
Autoscroll
slow
fast
+/-
esc
set tempo
stop
There's this one bass solo/fill thing at the end of a line in the chorus that I couldn't
work out, so I'm sorry about that. Anyway, the rest is pretty much spot on. I think.
Enjoy ^^

- So I've listen to the song again and I think I've pretty much nailed the fills now.
Should be 100% :D

[Verse]

G|--------------------------------------|------------------------------------------|
D|-------2--------2---------2--------2--|--------2---------2----------2---------2--|
A|----0-3------0-3-3-----0-3------0-3-3-|-5-5-0-3---5-5-0-3-3--5-5-0-3---5-5-0-3-3-|x2
D|-3-3------3-3-------3-3------3-3------|------------------------------------------|


[Pre-Chorus]

G|----------------------------------|
D|----------------------------------|
A|-1~---3~--------------------------|
D|-----------3~---------------------|


[Chorus]

G|------------------------------------------------------------------|
D|------------------------------------------------------------------|
A|-1-1-1-1-1-1-1-1-3-3-3-3-3-3-3-3------------------------------0---|
D|---------------------------------3-3-3-3-3-3-3-3-3-3-3-3-3-3-5----|

G|-----------------------------------------------------------------------|
D|-------------------------------------------------12-10-7-10-7----------|
A|-1-1-1-1-1-1-1-1-3-3-3-3-3-3-3-3-8-8-8-8-8-8-8-8--------------10-8-0---|
D|-----------------------------------------------------------------------|

G|-------------------------------------------------------------------------------|
D|-----------2-3-----------7-8---------7-5---------------------------------------|
A|-1-1-1-1-1-----3-3-3-3-3-----5-5-5-5--5-8-5-3-0-----0----1-1-1-1-1-1-1-1-3x----|
D|-----------------------------------------3-----3-0-5---------------------------|


[Pre-Verse]

G|-----------------------------|
D|------2-------2--------2-----|
A|----03------03-3-----03------|x1
D|-3-3-----3-3------3-3-----3x-|


[Verse]

G|--------------------------------------|------------------------------------------|
D|-------2--------2---------2--------2--|--------2---------2----------2---------2--|
A|----0-3------0-3-3-----0-3------0-3-3-|-5-5-0-3---5-5-0-3-3--5-5-0-3---5-5-0-3-3-|x2
D|-3-3------3-3-------3-3------3-3------|------------------------------------------|


[Pre-Chorus]

G|----------------------------------|
D|----------------------------------|
A|-1~---3~--------------------------|
D|-----------3~---------------------|


[Chorus]

G|------------------------------------------------------------------|
D|------------------------------------------------------------------|
A|-1-1-1-1-1-1-1-1-3-3-3-3-3-3-3-3------------------------------0---|
D|---------------------------------3-3-3-3-3-3-3-3-3-3-3-3-3-3-5----|

G|-----------------------------------------------------------------------|
D|-------------------------------------------------12-10-7-10-7----------|
A|-1-1-1-1-1-1-1-1-3-3-3-3-3-3-3-3-8-8-8-8-8-8-8-8--------------10-8-0---|
D|-----------------------------------------------------------------------|

G|-------------------------------------------------------------------------------|
D|-----------2-3-----------7-8---------7-5---------------------------------------|
A|-1-1-1-1-1-----3-3-3-3-3-----5-5-5-5--5-8-5-3-0-----0----1-1-1-1-1-1-1-1-3x----|
D|-----------------------------------------3-----3-0-5---------------------------|


[Straight Into Bridge]

G|--------------------------------------------|
D|---3-2------3-2----0~---0-2-----------------|
A|-------3--------3-----------3-3-3-3-3-3-3-3-|x4
D|-3--------3---------------------------------|


[Pre-Chorus]

G|------------------------------------|
D|------------------------------------|
A|-1~---3~----------------------------|x2
D|-----------3~-----------------------|


[Chorus]

G|-------------------------------------------------------------------|
D|-------------------------------------------------------------------|
A|-1-1-1-1-1-1-1-1-3-3-3-3-3-3-3-3------------------------------0----|
D|----------------------------------3-3-3-3-3-3-3-3-3-3-3-3-3-3-5----|

G|-----------------------------------------------------------------------|
D|-------------------------------------------------12-10-7-10-7----------|
A|-1-1-1-1-1-1-1-1-3-3-3-3-3-3-3-3-8-8-8-8-8-8-8-8--------------10-8-0---|
D|-----------------------------------------------------------------------|

G|-------------------------------------------------------|
D|-----------2-3-----------7-8---------7-5---------------|
A|-1-1-1-1-1-----3-3-3-3-3-----5-5-5-5--5-8-5-3-0-----0--|
D|-----------------------------------------3-----3-0-5---|

G|------------------------------------------------------------|
D|------------------------5-5-7-7------------3-3-------5-5----|
A|-1-1-1-1-1-1-1-1-3-3-3-3-------1-1-1-1-1-1----3-3-3-3---3-3-|
D|------------------------------------------------------------|

G|--------------------------------------------|
D|-8-8-7-7-5-5----------------5---------------|
A|-------------8-8-3-3-5-5-7-7-7--------------|
D|--------------------------------------------|

************************************

| x  Dead note
| ~  Vibrato

************************************
Tabbed By Jack Mills

            
            
Suggest correction
Creating personal tab
Creating personal tab
You can edit any tab online and save it as your Personal.

You can edit, replace or remove any tab part or add personal notes – all changes will be seen only by you.

Personal tabs can be accessed anytime from any device, even offline.
Learn more »
comments
print report bad tab
11 comments total. Showing first comments.
0 reply
coxyboy 10 Mar 29, 2013 09:09 AM

Good tab man!!

+2 reply
JackMills 6,147 Mar 29, 2013 09:12 AM

Thanks! ^^

+2 reply
coxyboy 10 Mar 30, 2013 03:45 AM

good to see this song as a tab

guest
You may want to rate the tab now too:
select rating
Wanna post a correction for this tab? Suggest correction