Oops, an error
Loading. Please wait.

Stop This Song tab

version 3
version 3

Whole song

Interactive

3,649 views 1 this week
no commentswrite comment
1 2 3 4 5
1 last vote to show rating
add to favorites
×
Save as Personal and add changes to this tab that will be seen only by you. Learn more ›
×
You can save this tab as Personal to edit and correct it or add notes. All changes will be seen only by you. Learn more »
launch autoscroll
font size
0
reset
how to read this tab
guitar tuner
edit
Autoscroll
slow
fast
+/-
esc
set tempo
stop
Author
Difficulty
-----------------------------------------------------------------
STOP THIS SONG (LOVESICK MELODY) - Paramore
-----------------------------------------------------------------
Tabbed by:Frank Truei
Email:BrokenSword421@hotmail.com

Tuning: 
Lead: EADGBe (Standard)
Rhythm:  DADGBe (Drop D)

Part 1 (0:00 - 0:11)
LEAD LINE
e|---------------|---------------|---------------|---------------|
B|4-4-3-4--4-3-4-|-4-3-4---4-4-4-|4-4-3-4-4-4-3-4|6--4--3--------|
G|---------------|---------------|---------------|---------5-----| x2
D|---------------|---------------|---------------|---------------|
A|---------------|---------------|---------------|---------------|
E|---------------|---------------|---------------|---------------|

On 2nd playthrough substitute last bar with this alternative ending:

e|---------------|
B|6--------------|
G|---------------|
D|---------------|
A|---------------|
E|---------------|


RHYTHM LINE
e|---------------|---------------|---------------|---------------|
B|---------------|---------------|---------------|---------------|
G|5-5-5-5-5-5-5-5|---------------|---------------|---------------|
D|5-5-5-5-5-5-5-5|6-6-6-6-6-6-6-6|5-5-5-5-5-5-5-5|1-1-1-1-1-1-1-1|  x2
A|3-3-3-3-3-3-3-3|6-6-6-6-6-6-6-6|5-5-5-5-5-5-5-5|1-1-1-1-1-1-1-1|
D|---------------|6-6-6-6-6-6-6-6|5-5-5-5-5-5-5-5|1-1-1-1-1-1-1-1|


PART 2 (0:11 - 0:35)
LEAD               You say the...  Along to...
e|---------------|---------------|------------------11-------------|
B|---11----------|---------------|---------11----------------------|
G|10----12-------|---------------|------10----12---------12---10---|
D|---------------|---------------|---------------------------------|
A|---------------|---------------|---------------------------------|
E|---------------|---------------|---------------------------------|

RHYTHM            
e|---------------|8~-------------|8~-------------------------------|
B|---------------|-8~------------|-8~------------------------------|
G|---------------|--8------------|--8------------------------------|
D|---------------|---10----------|---10----------------------------|
A|---------------|---------------|---------------------------------|
D|---------------|---------------|---------------------------------|


LEAD
This 4/4 time...                  This 4/4 Beat I...
e|-----------------11------------|------------------11-------------|
B|---11--------------------------|---11----------------------------|
G|10----12-------------12---10---|10----12---------------12---10---|
D|-------------------------------|---------------------------------|
A|-------------------------------|---------------------------------|
E|-------------------------------|---------------------------------|

RHYTHM
e|8~-----------------------------|8~-------------------------------|
B|-8~----------------------------|-8~------------------------------|
G|--8----------------------------|--8------------------------------|
D|---10--------------------------|---10----------------------------|
A|-------------------------------|---------------------------------|
D|-------------------------------|---------------------------------|

PART 3(0:35 - 0:48)
LEAD 
  Someone stop this...

e|---------------------------------------------------------------|
B|---------------------------------------------------------------|
G|---------------------------------------------------------------|
D|---------------------------------------------------------------|
A|---------------------------------------------------------------|
E|---------------------------------------------------------------|

RHYTHM
e|---------------------------------------------------------------|
B|4--------------------------------------------------------------|
G|5--------------------------------------------------------------|
D|5--------------------------------------------------------------|
A|3--------------------------------------------------------------|
D|---------------------------------------------------------------|

LEAD
I've gone too far...
e|11----11----|10----10----10----|10---10-----|8---8---8---------|
B|--13----13--|--13----13----13--|--8----8----|-8---8---8--------|
G|----12----12|----12----12----12|---10---10--|--10--10--10------|
D|------------|------------------|------------|------------------|
A|------------|------------------|------------|------------------|
E|------------|------------------|------------|------------------|

RHYTHM
e|-------------------------------|-------------------------------|
B|4------------------------------|4------------------------------|
G|5------------------------------|5------------------------------|
D|5------------------------------|5------------------------------|
A|3------------------------------|3------------------------------|
D|-------------------------------|-------------------------------|

LEAD
Clue...You Don't know what you do...to me
e|11----11----|13----13----13----|15----15----|18----------------|
B|--13----13--|--13----13----13--|--13----13--|---16-15-16-------|
G|----12----12|----12----12----12|----15----15|------------17----|
D|------------|------------------|------------|------------------|
A|------------|------------------|------------|------------------|
E|------------|------------------|------------|------------------|

RHYTHM
e|-------------------------------|-------------------------------|
B|4------------------------------|4------------------------------|
G|5------------------------------|5------------------------------|
D|5------------------------------|5------------------------------|
A|3------------------------------|3------------------------------|
D|-------------------------------|-------------------------------|

CHORUS 1 (0:49 - 1:00)
LEAD
Won't someone stop this song...
e|---------------|---------------|---------------|---------------|
B|4-4-3-4--4-3-4-|-4-3-4---4-4-4-|4-4-3-4-4-4-3-4|6--4--3--------|
G|---------------|---------------|---------------|---------5-----| x2
D|---------------|---------------|---------------|---------------|
A|---------------|---------------|---------------|---------------|
E|---------------|---------------|---------------|---------------|

On 2nd playthrough substitute last bar with this alternative ending:

e|---------------|
B|6--------------|
G|---------------|
D|---------------|
A|---------------|
E|---------------|


RHYTHM
e|---------------|---------------|---------------|---------------|
B|---------------|---------------|---------------|---------------|
G|5-5-5-5-5-5-5-5|---------------|---------------|---------------|
D|5-5-5-5-5-5-5-5|6-6-6-6-6-6-6-6|5-5-5-5-5-5-5-5|1-1-1-1-1-1-1-1|  x2
A|3-3-3-3-3-3-3-3|6-6-6-6-6-6-6-6|5-5-5-5-5-5-5-5|1-1-1-1-1-1-1-1|
D|---------------|6-6-6-6-6-6-6-6|5-5-5-5-5-5-5-5|1-1-1-1-1-1-1-1|

PART 5 (1:00 - 1:46)

LEAD               
I never let love in...
e|---------------|---------------|---------------------------------|
B|---11----------|---------------|---------------------------------|
G|10----12-------|---------------|---------------------------------|
D|---------------|---------------|---------------------------------|
A|---------------|---------------|---------------------------------|
E|---------------|---------------|---------------------------------|

RHYTHM            
e|---------------|8~-------------|8~-------------------------------|
B|---------------|-8~------------|-8~------------------------------|
G|---------------|--8------------|--8------------------------------|
D|---------------|---10----------|---10----------------------------|
A|---------------|---------------|---------------------------------|
D|---------------|---------------|---------------------------------|

LEAD
e|-----------------------|-----------------------|
B|------11----11-----11--|------11----11-----11--|
G|--10----------10-------|--10----------10-------|
D|12--12----12----12-----|12--12----12----12-----|
A|-----------------------|-----------------------|
E|-----------------------|-----------------------|


RHYTHM
e|----8~---------------------------------------------------------|
B|---8~----------------------------------------------------------|
G|--8------------------------------------------------------------|
D|10-------------------------------------------------------------|
A|---------------------------------------------------------------|
D|---------------------------------------------------------------|

LEAD
e|-----------------------|-----------------------|
B|------11----11-----11--|------11----11------11-|
G|--10----------10-------|--10------------12-----|
D|12--12----12----12-----|12--12----12-----------|
A|-----------------------|-----------------------|
E|-----------------------|-----------------------|


RHYTHM
e|8~---------------------------------------------|
B|-8~--------------------------------------------|
G|--8--------------------------------------------|
D|---10------------------------------------------|
A|-----------------------------------------------|
D|-----------------------------------------------|

LEAD
I've gone too far to come back from there...
e|11----11----|10----10----10----|10---10-----|8---8---8---------|
B|--13----13--|--13----13----13--|--8----8----|-8---8---8--------|
G|----12----12|----12----12----12|---10---10--|--10--10--10------|
D|------------|------------------|------------|------------------|
A|------------|------------------|------------|------------------|
E|------------|------------------|------------|------------------|

RHYTHM
e|-------------------------------|-------------------------------|
B|4------------------------------|4------------------------------|
G|5------------------------------|5------------------------------|
D|5------------------------------|5------------------------------|
A|3------------------------------|3------------------------------|
D|-------------------------------|-------------------------------|

LEAD
Clue...You Don't know what you do...to me
e|11----11----|13----13----13----|15----15----|18----------------|
B|--13----13--|--13----13----13--|--13----13--|---16-15-16-------|
G|----12----12|----12----12----12|----15----15|------------17----|
D|------------|------------------|------------|------------------|
A|------------|------------------|------------|------------------|
D|------------|------------------|------------|------------------|

LEAD
I've gone too far to get over you...
e|11----11----|10----10----10----|10---10-----|8---8---8---------|
B|--11----11--|--13----13----13--|--8----8----|-8---8---8--------|
G|----12----12|----12----12----12|---10---10--|--10--10--10------|
D|------------|------------------|------------|------------------|
A|------------|------------------|------------|------------------|
E|------------|------------------|------------|------------------|

RHYTHM
e|-------------------------------|-------------------------------|
B|4------------------------------|4------------------------------|
G|5------------------------------|5------------------------------|
D|5------------------------------|5------------------------------|
A|3------------------------------|3------------------------------|
D|-------------------------------|-------------------------------|

LEAD
Clue...You Don't know what you do...to me
e|11----11----|13----13----13----|15----15----|18----------------|
B|--13----13--|--13----13----13--|--13----13--|---16-15-16-------|
G|----12----12|----12----12----12|----15----15|------------17----|
D|------------|------------------|------------|------------------|
A|------------|------------------|------------|------------------|
E|------------|------------------|------------|------------------|

RHYTHM
e|-------------------------------|-------------------------------|
B|4------------------------------|4------------------------------|
G|5------------------------------|5------------------------------|
D|5------------------------------|5------------------------------|
A|3------------------------------|3------------------------------|
D|-------------------------------|-------------------------------|

CHORUS 2 (1:46 - 2:09)

LEAD
Won't someone stop this song...
e|---------------|---------------|---------------|---------------|
B|4-4-3-4--4-3-4-|-4-3-4---4-4-4-|4-4-3-4-4-4-3-4|6--4--3--------|
G|---------------|---------------|---------------|---------5-----| x4
D|---------------|---------------|---------------|---------------|
A|---------------|---------------|---------------|---------------|
D|---------------|---------------|---------------|---------------|

On 2nd playthrough substitute last bar with this alternative ending:

e|---------------|
B|6--------------|
G|---------------|  
D|---------------| 
A|---------------|
E|---------------|


RHYTHM
e|---------------|---------------|---------------|---------------|
B|---------------|---------------|---------------|---------------|
G|5-5-5-5-5-5-5-5|---------------|---------------|---------------|
D|5-5-5-5-5-5-5-5|6-6-6-6-6-6-6-6|5-5-5-5-5-5-5-5|1-1-1-1-1-1-1-1|  x4
A|3-3-3-3-3-3-3-3|6-6-6-6-6-6-6-6|5-5-5-5-5-5-5-5|1-1-1-1-1-1-1-1|
D|---------------|6-6-6-6-6-6-6-6|5-5-5-5-5-5-5-5|1-1-1-1-1-1-1-1|

PART 7(2:09-2:36)
LEAD
e|---------------------------------------------------------------|
B|---------------------------------------------------------------|
G|7-7-7-7-8-8-8-8-10-10-10-10-5-5-5-5----------------------------|
D|---------------------------------------------------------------|
A|---------------------------------------------------------------|
E|---------------------------------------------------------------|

RHYTHM
e|---------------------------------------------------------------|
B|---------------------------------------------------------------|
G|---------------------------------------------------------------|
D|8-8-8-8-5-5-5-5------------------------------------------------|
A|----------------5-5-5-5-6-6-6-6--------------------------------|
D|---------------------------------------------------------------|

LEAD
It creeps in like a spider...
e|---------------------------------------------------------------|
B|---------------------------------------------------------------|
G|5-5--5-7-7--7-8-8--8-10-10-10-5-5---5-7-7-----7-8-8-----8-12-12|
D|---------------------------------------------------------------|
A|---------------------------------------------------------------|
E|---------------------------------------------------------------|

RHYTHM
e|---------------------------------------------------------------|
B|---------------------------------------------------------------|
G|---------------------------------------------------------------|
D|6-6--6-6-6--6-6-6--6-6-6--6-10-10--10-10-10--10-10-10--10-10-10|
A|6-6--6-6-6--6-6-6--6-6-6--6-10-10--10-10-10--10-10-10--10-10-10|
D|6-6--6-6-6--6-6-6--6-6-6--6-10-10--10-10-10--10-10-10--10-10-10|

LEAD
e|---------------------------------------------------------------|
B|------------------------------------------------11-11--11-11-11|
G|12-5-5--5-7-7--7-8-8--8-10-10-10-7-7---7-7-7--7----------------|
D|---------------------------------------------------------------|
A|---------------------------------------------------------------|
E|---------------------------------------------------------------|

RHYTHM
e|---------------------------------------------------------------|
B|---------------------------------------------------------------|
G|---------------------------------------------------------------|
D|10-1-1--1-1-1--1-1-1--1-1-1--1-8-8--8-8-8--8-5-5--5-5-5--------|
A|10-1-1--1-1-1--1-1-1--1-1-1--1-8-8--8-8-8--8-5-5--5-5-5--------|
D|10-1-1--1-1-1--1-1-1--1-1-1--1-8-8--8-8-8--8-5-5--5-5-5--------|

LEAD
Well don't you see I'm falling...
e|---------------------------------------------------------------|
B|---------------------------------------------------------------|
G|5-5--5-7-7--7-8-8--8-10-10-10-5-5---5-7-7-----7-11-11----11-8-8|
D|---------------------------------------------------------------|
A|---------------------------------------------------------------|
E|---------------------------------------------------------------|

RHYTHM
e|---------------------------------------------------------------|
B|---------------------------------------------------------------|
G|---------------------------------------------------------------|
D|6-6--6-6-6--6-6-6--6-6-6--6-10-10--10-10-10--10-10-10--10-10-10|
A|6-6--6-6-6--6-6-6--6-6-6--6-10-10--10-10-10--10-10-10--10-10-10|
D|6-6--6-6-6--6-6-6--6-6-6--6-10-10--10-10-10--10-10-10--10-10-10|

LEAD
e|---------------------------------------------------------------------|
B|8--------------------------------------------------------------------|
G|--5-5--5-7-7--7-8-8--8-10-10-10-7-7-7-7-8-8-8-8-10-10-10-10-5-5-5-5--|
D|---------------------------------------------------------------------|
A|---------------------------------------------------------------------|
E|---------------------------------------------------------------------|
RHYTHM
e|---------------------------------------------------------------------|
B|---------------------------------------------------------------------|
G|---------------------------------------------------------------------|
D|10-1-1--1-1-1--1-1-1--1-1-1--1-8-8-8-8-5-5-5-5-----------------------|
A|10-1-1--1-1-1--1-1-1--1-1-1--1-----------------5-5-5-5-6-6-6-6-6-----|
D|10-1-1--1-1-1--1-1-1--1-1-1--1---------------------------------------|

PART 8 (2:36 - 2:42)
LEAD
e|-------|-------|-------|-----------|-----------|-----------|--------------|
B|-------|-------|-------|-----------|-----------|-----------|--------------|
G|5-5-5-5|7-7-7-7|8-8-8-8|10-10-10-10|12-12-12-12|13-13-13-13|15-15-15-15-15|
D|5-5-5-5|7-7-7-7|8-8-8-8|10-10-10-10|12-12-12-12|13-13-13-13|15-15-15-15-15|
A|3-3-3-3|5-5-5-5|6-6-6-6|8--8--8--8-|10-10-10-10|11-11-11-11|13-13-13-13-13|
E|-------|-------|-------|-----------|-----------|-----------|--------------|

RHYTHM
   Palm Muted
e|-------|
B|-------|
G|-------| x5
D|6-6-6-6|
A|6-6-6-6|
D|6-6-6-6|
Non-palm muted
e|-------|-------|----------|
B|-------|-------|----------|
G|-------|-------|----------|
D|6-6-6-6|6-6-6-6|6-6-6-6-6-|
A|6-6-6-6|6-6-6-6|6-6-6-6-6-|
D|6-6-6-6|6-6-6-6|6-6-6-6-6-|

END OF SONG/FINAL CHORUS (2:43 - End!)

Play the chorus parts twice, then end with



e|---------------|8~-------------|8~-------------------------------|
B|---------------|-8~------------|-8~------------------------------|
G|---------------|--8------------|--8------------------------------|
D|---------------|---10----------|---10----------------------------|
A|---------------|---------------|---------------------------------|
E|---------------|---------------|---------------------------------|


YEEKS!  That took forever to write out....

            
            
Suggest correction
Creating personal tab
Creating personal tab
You can edit any tab online and save it as your Personal.

You can edit, replace or remove any tab part or add personal notes – all changes will be seen only by you.

Personal tabs can be accessed anytime from any device, even offline.
Learn more »
Give kudos to tab author, rate the tab!
1 2 3 4 5
comments
print report bad tab
guest
You may want to rate the tab now too:
select rating
Wanna post a correction for this tab? Suggest correction