Oops, an error
Loading. Please wait.

Stuck On You tab

version 3
version 3

Whole song

1,452 views 1 this week
no commentswrite comment
1 2 3 4 5
3 more votes to show rating
add to favorites
×
Save as Personal and add changes to this tab that will be seen only by you. Learn more ›
×
You can save this tab as Personal to edit and correct it or add notes. All changes will be seen only by you. Learn more »
launch autoscroll
font size
0
reset
how to read this tab
guitar tuner
edit
Autoscroll
slow
fast
+/-
esc
set tempo
stop
Paramore - "Stuck On You"

Adjustments:
Tuning - Drop D
Capo - 4th Fret

-I tabbed out the song for the people who wanna play this in solitary, instead of being 
by another guitarist. It's very simple to play, just figure out the timing.


Intro and Chorus: X3
e|---0-------0-------3--------|
B|-----3-------3--------------|
G|-------2-------2-------2----| X3
D|----------------------------|
A|----------------------------|
E|----------------------------|
          -OR-
e|----------------------------|
B|---5-------5-------8--------|
G|-----7-------7--------------| X3
D|-------7-------7-------7----|
A|----------------------------|
E|----------------------------|


e|---8-------7----------------|
B|-----5-------5-------5------|
G|-------7-------7-------7----| X1
D|----------------------------|
A|----------------------------|
E|----------------------------|


Verses and Chorus: (palm mute during verses)
e|---0--------3--------2--------5------|
B|---0-X8-----3-X8-----2-X8-----5-X8---|
G|---0--------3--------2--------5------| X3
D|-------------------------------------|
A|-------------------------------------|
E|-------------------------------------|
 (also listen to the strum pattern, some
  verse endings change.)

            
            
Suggest correction
Creating personal tab
Creating personal tab
You can edit any tab online and save it as your Personal.

You can edit, replace or remove any tab part or add personal notes – all changes will be seen only by you.

Personal tabs can be accessed anytime from any device, even offline.
Learn more »
Give kudos to tab author, rate the tab!
1 2 3 4 5
comments
print report bad tab
guest
You may want to rate the tab now too:
select rating
Wanna post a correction for this tab? Suggest correction