Oops, an error
Loading. Please wait.
We have an official Thats What You Get tab made by UG professional guitarists. Check out the tab »
×
4,418 views 1 this week
no commentswrite comment
1 2 3 4 5
x 7
add to favorites
×
Save as Personal and add changes to this tab that will be seen only by you. Learn more ›
×
You can save this tab as Personal to edit and correct it or add notes. All changes will be seen only by you. Learn more »
launch autoscroll
font size
0
reset
guitar tuner
backing track
0:00
0:00
edit
Autoscroll
slow
fast
+/-
esc
set tempo
stop
-------------------------------------------------------------------------------
			     That's What You Get - Paramore
-------------------------------------------------------------------------------

Tabbed By : MusicMan24
e-mail: a7t1r1@hotmail.com

This song is in Db, not in standard, and I'm sure its 100% correct.

Btw, those are elevens, not ones.


Tuning: D Flat  (Db Ab Db Gb) Low to high


Intro x2

Gb|--------------------------------|
Db|--------------------------------|
Ab|--------------------------------|
Db|7-7-7--7-7-7--9-9-9--11-11-11-6-|


Verse x1

Gb|-----------------------------------------------------------------|
Db|-----------------------------------------------------------------|
Ab|-----------------------------------------------------------------|
Db|7-7-7--7-7-7--9-9-9--11-11-11--7-7-7--7-7-7--9-9-9--11-11-11-15/-|

Intro x1


Verse x1

Gb|---------------------------------------------------------------------------|
Db|---------------------------------------------------------------------------|
Ab|---------------------------------------------------------------------------|
Db|7-77-7--7-77-7--9-99-9--11-1111-11--7-77-7--7-77-7--9-99-9--11-1111-11--2~-|


Chorus x1

Gb|----------------------------------------------------------------------------------|
Db|----------------------------------------------------------------------------------|
Ab|--------------------------------------------7-------------------------------------|
Db|77777777-22222222-1111111111111111-9999-9-11-9-77777777-22222222-9999999999999999-|

Gb|-------------------------------------------------------|
Db|-------------------------------------------------------|
Ab|----------------------------------------------------7--|
Db|1111111111111111-99999999-1111111111111111-9999-9-11-9-|

Gb|-----------------------------------|
Db|-----------------------------------|
Ab|-----------------------------------|
Db|77777777-22222222-9999999999999999-|

Pause

Intro x1


Verse x1

Gb|---------------------------------------|
Db|---------------------------------------|
Ab|---------------------------------------|
Db|7-77-7--7-77-7--9-99-9--11-1111-11-15/-|

Gb|-----------------------------------------------------------------------|
Db|-----------------------------------------------------------------------|
Ab|-----------------------------------------------------------------------|
Db|7-77-7--7-77-7--9-99-9--11-1111-11--7-77-7--7-77-7--9-99-9--11-1111-11-|

Gb|-----------------------------------------|
Db|-----------------------------------------|
Ab|-----------------------------------------|
Db|7-77-7--7-77-7--9-99-9--11-1111-11-15/2~-|


Chorus x1

Gb|-------------------------------------------------------------------------------|
Db|-------------------------------------------------------------------------------|
Ab|-------------------------------------------------------------------------------|
Db|77777777-22222222-1111111111111111-99999999-77777777-22222222-9999999999999999-|

Gb|---------------------------------------------------------------------------------------|
Db|---------------------------------------------------------------------------------------|
Ab|---------------------------------------------------------------------------------------|
Db|1111111111111111-99999999-1111111111111111-99999999-77777777-22222222-9999999999999999-|


Bridge x4

Gb|------------------------------|
Db|------------------------------|
Ab|------------------------------|
Db|7-7-7--7-7-7--9-9-9--11-11-11-|

Intro x2


Pre-Chorus x1

Gb|--------------------|
Db|--------------------|
Ab|--------------------|
Db|999999999999999-15/-|
   ........


Chorus x1

Gb|-------------------------------------------------------------------------------|
Db|-------------------------------------------------------------------------------|
Ab|-------------------------------------------------------------------------------|
Db|77777777-22222222-1111111111111111-99999999-77777777-22222222-9999999999999999-|

Gb|---------------------------------------------------------------------------------------|
Db|---------------------------------------------------------------------------------------|
Ab|---------------------------------------------------------------------------------------|
Db|1111111111111111-99999999-1111111111111111-99999999-77777777-22222222-9999999999999999-|


Outro x1

Gb|-----------------|
Db|-----------------|
Ab|-----------------|
Db|7-7-7--7-7-7--2~-|

PEACE


| /  slide up
| \  slide down
| h  hammer-on
| p  pull-off
| ~  vibrato
| +  harmonic
| x  Mute note
===============================================================================

            
            
Suggest correction
Creating personal tab
Creating personal tab
You can edit any tab online and save it as your Personal.

You can edit, replace or remove any tab part or add personal notes – all changes will be seen only by you.

Personal tabs can be accessed anytime from any device, even offline.
Learn more »
comments
print report bad tab
guest
You may want to rate the tab now too:
select rating
Wanna post a correction for this tab? Suggest correction