Oops, an error
Loading. Please wait.

Use Somebody tab

version 2
version 2

Whole song

23,522 views 3 this week
6 commentsread comments
1 2 3 4 5
x 6
add to favorites
×
Save as Personal and add changes to this tab that will be seen only by you. Learn more ›
×
You can save this tab as Personal to edit and correct it or add notes. All changes will be seen only by you. Learn more »
launch autoscroll
font size
0
reset
how to read this tab
guitar tuner
edit
Autoscroll
slow
fast
+/-
esc
set tempo
stop
-------------------------------------------------------------------------------
			     Use Somebody - Paramore
-------------------------------------------------------------------------------
Tabbed by: Peter Davison
Email: nobugsinyourrugs@gmail.com
Notes:

All the chords are here, email me if you have any difficulty. You shouldn't have 
any problems though. Here's a link to the song for the time signatures - 
http://www.youtube.com/watch?v=qXk_KVNfInU

Tuning: Half a step down with a capo on the 2nd fret.

Rhythm Guitar - 0:00 - 0:30

e|--x--------x--------x---------|
B|--x--------x--------x---------|
G|--9----x8--9----x8--2----x16--|x2
D|--10-------10-------3---------|
A|--10-------10-------3---------|
E|--8--------0--------1---------|
						Repeat till bridge
e|--x--------x--------x---------|
B|--x--------1--------x---------|
G|--2----x8--0----x8--2----x16--|x2
D|--2--------2--------3---------|
A|--0--------3--------3---------|
E|--x--------x--------1---------|


Lead Guitar - 0:00 - 0:30

e|--x--|
B|--x--|
G|--5--| repeat
D|--x--|
A|--3--|
E|--x--|

Lead Guitar - 1:00 - 1:30

e|--------------------------|
B|--------5--------5--------|
G|-----5--------5--------5--| Arpeggio 
D|--3--------3--------3-----|
A|--------------------------|
E|--------------------------|

Rhythm Guitar - Bridge 2:57 - 3:11
e|--x---------x-------|
B|--x---------x-------|
G|--x----x16--3--x16--| x2
D|--14--------4-------|
A|--14--------4-------|
E|--12--------2-------|

Lead Guitar - Bridge 2:57 - 3:11

e|---------------------------|
B|---------------------------|
G|---------------------------|
D|---------------------------|
A|--11----(x16)--4----(x16)--|
E|---------------------------|

Lead Guitar - solo 3:11 - out

e|--x----x----x----x----x----x----x----x----x--|
B|--x----x----x----x----x----x----x----x----x--|
G|--11---14---5----12---11-/-12-\-11---7----5--|
D|--x----x----x----x----x----x----x----x----x--|
A|--9----12---3----10---9----10---9----5----3--|
E|--x----x----x----x----x----x----x----x----x--|




************************************

| /   slide up
| \   slide down
| h   hammer-on
| p   pull-off
| ~   vibrato
| +   harmonic
| x   Mute note
| b   Bend
| pb  Pre-bend
| br  Bend release
| pbr Pre-bend release
| brb Bend release bend

************************************

            
            
Suggest correction
Creating personal tab
Creating personal tab
You can edit any tab online and save it as your Personal.

You can edit, replace or remove any tab part or add personal notes – all changes will be seen only by you.

Personal tabs can be accessed anytime from any device, even offline.
Learn more »
comments
print report bad tab
6 comments total. Showing first comments.
0 reply
allyandjoshwahh 10 Mar 31, 2010 02:32 PM

This isnt exactly how they play it but who cares. You actually put in both guitar parts, and it sounds awesome. Great job dude, 5stars

+1 reply
JessicaGonzo 231 Apr 11, 2010 10:29 AM

half a step down with a capo on the 2?

+2 reply
Ghost:o 118 Apr 15, 2010 03:48 AM

e|--x----x----x----x----x----x----x----x----x---x---x-|
B|--x----x----x----x----x----x----x----x----x---x---x-|
G|--9----12---5----5----10---9----9--/-10-\-9---7---5-|
D|--x----x----x----x----x----x----x----x----x---x---x-|
A|--7----10---3----3----8----7----7--/-8--\-7---5---3-|
E|--x----x----x----x----x----x----x----x----x---x---x-|

guest
You may want to rate the tab now too:
select rating
Wanna post a correction for this tab? Suggest correction