Oops, an error
Loading. Please wait.
We have an official When It Rains tab made by UG professional guitarists. Check out the tab »
×
14,118 views 15 this week
1 commentread comment
1 2 3 4 5
x 11
add to favorites
×
Save as Personal and add changes to this tab that will be seen only by you. Learn more ›
×
You can save this tab as Personal to edit and correct it or add notes. All changes will be seen only by you. Learn more »
launch autoscroll
font size
0
reset
guitar tuner
backing track
0:00
0:00
edit
Autoscroll
slow
fast
+/-
esc
set tempo
stop
Paramore
When It Rains
Submitted by: paramore_fans@yahoo.com

Key: Eb

Tuning: Standard EADG


Intro:
G|------------------------------------|
D|------------------------------------|
A|----------3-3-6-6-----------1-1-3-3-| x2
E|-4-4-4-4-----------4-4-4-4----------|


G|---
D|---
A|-6-
E|---


Verses:
G|--------------------------|
D|--------------------------|
A|-3-3-3-3----------6-6-6-6-| x2
E|----------4-4-4-4---------|

G|---------------------------------------------|
D|---------------------------------------------|
A|----------6-6-6-6-----------6-6-6-6--1-1-1-1-|
E|-1-1-1-1-----------1-1-1-1-------------------|


Chorus:
G|------------------------------------|
D|------------------------------------|
A|----------3-3-6-6-----------1-1-3-3-| x2
E|-4-4-4-4-----------4-4-4-4----------|


Interlude:
G|---
D|---
A|-6-
E|---


Bridge: "Take your time"
G|------------------------------------|
D|------------------------------------|
A|----------6-6-6-6-------------------| x3
E|-1-1-1-1-----------4-4-4-4--3-3-3-3-|

G|---------------------------|
D|---------------------------|
A|----------6-6-6-6--4--4--4-|
E|-1-1-1-1-------------------|

            
            
Suggest correction
Creating personal tab
Creating personal tab
You can edit any tab online and save it as your Personal.

You can edit, replace or remove any tab part or add personal notes – all changes will be seen only by you.

Personal tabs can be accessed anytime from any device, even offline.
Learn more »
comments
print report bad tab
1 comment total.
0 reply
ortbergalex 10 Apr 08, 2017 04:47 PM

Make the tuning Eb and bring everything down a fret, then this will be pretty much correct. There are a lot of Paramore tabs like this... tabbed in standard, when most songs require a low Eb or Db. Not sure why... other than that, great work!

guest
You may want to rate the tab now too:
select rating
Wanna post a correction for this tab? Suggest correction