Oops, an error
Loading. Please wait.
We have an official Where The Lines Overlap tab made by UG professional guitarists. Check out the tab »
×
2,056 views 1 this week
no commentswrite comment
1 2 3 4 5
3 more votes to show rating
add to favorites
×
Save as Personal and add changes to this tab that will be seen only by you. Learn more ›
×
You can save this tab as Personal to edit and correct it or add notes. All changes will be seen only by you. Learn more »
launch autoscroll
font size
0
reset
guitar tuner
edit
Autoscroll
slow
fast
+/-
esc
set tempo
stop
G||-------|-------|-------|-------|--------------------------|
D||-------|-------|-------|-------|--2--2--2--2--2--2--2--2--|
A||-------|-------|-------|-------|--------------------------|
D||-------|-------|-------|-------|--------------------------|


  E  E  E  E  E  E  E  E     E  E  E  E  E  E  E  E   
--------------------------|--------------------------|
--2--2--2--7--7--7--7--7--|--2--2--2--2--2--2--2--2--|
--------------------------|--------------------------|
--------------------------|--------------------------|


  E  E  E  E  E  E  E  E      E   E   E   E   E   E   E   E   
--------------------------|----------------------------------|
--2--2--2--7--7--7--7--7--|--11--11--11--11--11--11--11--11--|
--------------------------|----------------------------------|
--------------------------|----------------------------------|


   E   E   E  E  E  E  E  E      E   E   E   E   E   E   E   E   
-----------------------------|----------------------------------|
--11--11--11--2--2--2--2--2--|--11--11--11--11--11--11--11--11--|
-----------------------------|----------------------------------|
-----------------------------|----------------------------------|


   E   E   E  E  E  E  E  E     E  E  E  E  E  E  E  E   
-----------------------------|--------------------------|
--11--11--11--2--2--2--2--2--|--2--2--2--2--2--2--2--2--|
-----------------------------|--------------------------|
-----------------------------|--------------------------|


  E  E  E  E  E  E  E  E     E  E  E  E  E  E  E  E   
--------------------------|--------------------------|
--2--2--2--7--7--7--7--7--|--2--2--2--2--2--2--2--2--|
--------------------------|--------------------------|
--------------------------|--------------------------|


  E  E  E  E  E  E  E  E      E   E   E   E   E   E   E   E   
--------------------------|----------------------------------|
--2--2--2--7--7--7--7--7--|--11--11--11--11--11--11--11--11--|
--------------------------|----------------------------------|
--------------------------|----------------------------------|


   E   E   E  E  E  E  E  E      E   E   E   E   E   E   E   E   
-----------------------------|----------------------------------|
--11--11--11--2--2--2--2--2--|--11--11--11--11--11--11--11--11--|
-----------------------------|----------------------------------|
-----------------------------|----------------------------------|


                                >                           
   E   E   E  E  E  E  E  E     E  Q.     H                 
-----------------------------|---------------------|-------|
--11--11--11--2--2--2--2--2--|---------------------|-------|
-----------------------------|---------------------|-------|
-----------------------------|--7------------------|-------|


  E  E  E  E  E  E  E  E     E  E  E  E  E  E  E  E   
--------------------------|--------------------------|
--2--2--2--2--2--2--2--2--|--2--2--2--2--2--2--2--2--|
--------------------------|--------------------------|
--------------------------|--------------------------|


  E  E  E  E  E  E  E  E     E  E  E  E  E  E  E  E   
--------------------------|--------------------------|
--7--7--7--7--7--7--7--7--|--7--7--7--7--7--7--7--7--|
--------------------------|--------------------------|
--------------------------|--------------------------|


  E  E  E  E  E  E  E  E     E  E  E  E  E  E  E  E   
--------------------------|--------------------------|
--2--2--2--2--2--2--2--2--|--2--2--2--2--2--2--2--2--|
--------------------------|--------------------------|
--------------------------|--------------------------|


  E  E  E  E  E  E  E  E     E  E  E  E  E  E  E  E   
--------------------------|--------------------------|
--7--7--7--7--7--7--7--7--|--7--7--7--7--7--7--7--7--|
--------------------------|--------------------------|
--------------------------|--------------------------|


   E   E   E   E   E   E   E   E     E  E  E  E  E  E  E  E   
----------------------------------|--------------------------|
--11--11--11--11--11--11--11--11--|--7--7--7--7--7--7--7--7--|
----------------------------------|--------------------------|
----------------------------------|--------------------------|


  E  E  E  E  E  E  E  E     E  E  E  E  E  E  E  E   
--------------------------|--------------------------|
--2--2--2--2--2--2--2--2--|--4--4--4--4--4--4--4--4--|
--------------------------|--------------------------|
--------------------------|--------------------------|


   E   E   E   E   E   E   E   E     E  E  E  E  E  E  E  E   
----------------------------------|--------------------------|
--11--11--11--11--11--11--11--11--|--7--7--7--7--7--7--7--7--|
----------------------------------|--------------------------|
----------------------------------|--------------------------|


  E  E  E  E  E  E  E  E     E  E  E  E  E  E  E  E   
--------------------------|--------------------------|
--2--2--2--2--2--2--2--2--|--4--4--4--4--4--4--4--4--|
--------------------------|--------------------------|
--------------------------|--------------------------|


  E  E  E  E  E  E  E  E     E  E  E  E  E  E  E  E   
--------------------------|--------------------------|
--2--2--2--2--2--2--2--2--|--2--2--2--7--7--7--7--7--|
--------------------------|--------------------------|
--------------------------|--------------------------|


  E  E  E  E  E  E  E  E     E  E  E  E  E  E  E  E   
--------------------------|--------------------------|
--2--2--2--2--2--2--2--2--|--2--2--2--7--7--7--7--7--|
--------------------------|--------------------------|
--------------------------|--------------------------|


   E   E   E   E   E   E   E   E      E   E   E  E  E  E  E  E   
----------------------------------|-----------------------------|
--11--11--11--11--11--11--11--11--|--11--11--11--2--2--2--2--2--|
----------------------------------|-----------------------------|
----------------------------------|-----------------------------|


   E   E   E   E   E   E   E   E      E   E   E  E  E  E  E  E   
----------------------------------|-----------------------------|
--11--11--11--11--11--11--11--11--|--11--11--11--2--2--2--2--2--|
----------------------------------|-----------------------------|
----------------------------------|-----------------------------|


  E  E  E  E  E  E  E  E     E  E  E  E  E  E  E  E   
--------------------------|--------------------------|
--2--2--2--2--2--2--2--2--|--2--2--2--7--7--7--7--7--|
--------------------------|--------------------------|
--------------------------|--------------------------|


  E  E  E  E  E  E  E  E     E  E  E  E  E  E  E  E   
--------------------------|--------------------------|
--2--2--2--2--2--2--2--2--|--2--2--2--7--7--7--7--7--|
--------------------------|--------------------------|
--------------------------|--------------------------|


   E   E   E   E   E   E   E   E      E   E   E  E  E  E  E  E   
----------------------------------|-----------------------------|
--11--11--11--11--11--11--11--11--|--11--11--11--2--2--2--2--2--|
----------------------------------|-----------------------------|
----------------------------------|-----------------------------|


   E   E   E   E   E   E   E   E      E   E   E  E  E  E  E  E   
----------------------------------|-----------------------------|
--11--11--11--11--11--11--11--11--|--11--11--11--2--2--2--2--2--|
----------------------------------|-----------------------------|
----------------------------------|-----------------------------|


                           >                                              
  E  E  Q    E  E  Q       E  Q.     H           E  E  E  E  E  E  E  E   
------------------------|---------------------|--------------------------|
------------------------|---------------------|--2--2--2--2--2--2--2--2--|
------------------------|---------------------|--------------------------|
--7--7-------7--7-------|--9------------------|--------------------------|


  E  E  E  E  E  E  E  E     E  E  E  E  E  E  E  E   
--------------------------|--------------------------|
--2--2--2--2--2--2--2--2--|--7--7--7--7--7--7--7--7--|
--------------------------|--------------------------|
--------------------------|--------------------------|


  E  E  E  E  E  E  E  E     E  E  E  E  E  E  E  E   
--------------------------|--------------------------|
--7--7--7--7--7--7--7--7--|--2--2--2--2--2--2--2--2--|
--------------------------|--------------------------|
--------------------------|--------------------------|


  E  E  E  E  E  E  E  E     E  E  E  E  E  E  E  E   
--------------------------|--------------------------|
--2--2--2--2--2--2--2--2--|--7--7--7--7--7--7--7--7--|
--------------------------|--------------------------|
--------------------------|--------------------------|


  E  E  E  E  E  E  E  E      E   E   E   E   E   E   E   E   
--------------------------|----------------------------------|
--7--7--7--7--7--7--7--7--|--11--11--11--11--11--11--11--11--|
--------------------------|----------------------------------|
--------------------------|----------------------------------|


  E  E  E  E  E  E  E  E     E  E  E  E  E  E  E  E   
--------------------------|--------------------------|
--7--7--7--7--7--7--7--7--|--2--2--2--2--2--2--2--2--|
--------------------------|--------------------------|
--------------------------|--------------------------|


  E  E  E  E  E  E  E  E      E   E   E   E   E   E   E   E   
--------------------------|----------------------------------|
--4--4--4--4--4--4--4--4--|--11--11--11--11--11--11--11--11--|
--------------------------|----------------------------------|
--------------------------|----------------------------------|


  E  E  E  E  E  E  E  E     E  E  E  E  E  E  E  E   
--------------------------|--------------------------|
--7--7--7--7--7--7--7--7--|--2--2--2--2--2--2--2--2--|
--------------------------|--------------------------|
--------------------------|--------------------------|


  E  E  E  E  E  E  E  E                                   
--------------------------|-------|-------|-------|-------|
--4--4--4--4--4--4--4--4--|-------|-------|-------|-------|
--------------------------|-------|-------|-------|-------|
--------------------------|-------|-------|-------|-------|


   E   E   E   E   E   E   E   E      E   E   E   E   E   E   E   E   
----------------------------------|----------------------------------|
----------------------------------|----------------------------------|
--11--11--11--11--11--11--11--11--|--14--14--14--14--14--14--14--14--|
----------------------------------|----------------------------------|


  E  E  E  E  E  E  E  E     E  E  E  E  E  E  E  E   
--------------------------|--------------------------|
--------------------------|--------------------------|
--7--7--7--7--7--7--7--7--|--------------------------|
--------------------------|--7--7-----7--7-----7-----|


   E   E   E   E   E   E   E   E     E  E  E  E  E  E  E  E   
----------------------------------|--------------------------|
----------------------------------|--------------------------|
--11--11--11--11--11--11--11--11--|--6--6--6--6--6--6--6--6--|
----------------------------------|--------------------------|


  E  E  E  E  E  E  E  E     E  E  E  E  E  E  E  E   
--------------------------|--------------------------|
--------------------------|--------------------------|
--7--7--7--7--7--7--7--7--|--------------------------|
--------------------------|--7--7--7--7--7--7--7--7--|


   E   E   E   E   E   E   E   E     E  E  E  E  E  E  E  E           
----------------------------------|--------------------------|-------|
----------------------------------|--------------------------|-------|
--11--11--11--11--11--11--11--11--|--6--6--6--6--6-----6--6--|-------|
----------------------------------|--------------------------|-------|


  E  E  H        Q               E  E  E  E  E  E  E  E   
----------------------|-------|--------------------------|
----------------------|-------|--7--7--7--7--7--7--7--7--|
----------------------|-------|--------------------------|
--6-------------------|-------|--------------------------|


  E  E  E  E  E  E  E  E     E  E  E  E  E  E  E  E   
--------------------------|--------------------------|
--7--7--7--7--7--7--7--7--|--2--2--2--2--2--2--2--2--|
--------------------------|--------------------------|
--------------------------|--------------------------|


  E  E  E  E  E  E  E  E     E  E  E  E  E  E  E  E   
--------------------------|--------------------------|
--2--2--2--2--2--2--2--2--|--7--7--7--7--7--7--7--7--|
--------------------------|--------------------------|
--------------------------|--------------------------|


  E  E  E  E  E  E  E  E      E   E   E   E   E   E   E   E   
--------------------------|----------------------------------|
--7--7--7--7--7--7--7--7--|--11--11--11--11--11--11--11--11--|
--------------------------|----------------------------------|
--------------------------|----------------------------------|


  E  E  E  E  E  E  E  E     E  E  E  E  E  E  E  E   
--------------------------|--------------------------|
--7--7--7--7--7--7--7--7--|--2--2--2--2--2--2--2--2--|
--------------------------|--------------------------|
--------------------------|--------------------------|


  E  E  E  E  E  E  E  E      E   E   E   E   E   E   E   E   
--------------------------|----------------------------------|
--4--4--4--4--4--4--4--4--|--11--11--11--11--11--11--11--11--|
--------------------------|----------------------------------|
--------------------------|----------------------------------|


  E  E  E  E  E  E  E  E     E  E  E  E  E  E  E  E   
--------------------------|--------------------------|
--7--7--7--7--7--7--7--7--|--2--2--2--2--2--2--2--2--|
--------------------------|--------------------------|
--------------------------|--------------------------|


  E  E  E  E  E  E  E  E     E  E  E  E  E  E  E  E   
--------------------------|--------------------------|
--4--4--4--4--4--4--4--4--|--2--2--2--2--2--2--2--2--|
--------------------------|--------------------------|
--------------------------|--------------------------|


  E  E  E   E   E   E   E   E     E  E  E  E  E  E  E  E   
-------------------------------|--------------------------|
--2--2--2--11--11--11--11--11--|--2--2--2--2--2--2--2--2--|
-------------------------------|--------------------------|
-----------11--11--11--11--11--|--------------------------|


  E  E  E  E  E  E  E  E     E  E  E  E  E  E  E  E   
--------------------------|--------------------------|
--2--2--2--7--7--7--7--7--|--2--2--2--2--2--2--2--2--|
--------------------------|--------------------------|
--------------------------|--------------------------|


  E  E  E   E   E   E   E   E     E  E  E  E  E  E  E  E   
-------------------------------|--------------------------|
--2--2--2--11--11--11--11--11--|--2--2--2--2--2--2--2--2--|
-------------------------------|--------------------------|
-----------11--11--11--11--11--|--------------------------|


  E  E  E  E  E  E  E  E     W                   W                 
--------------------------|-------------------|-------------------|
--2--2--2--7--7--7--7--7--|--2----------------|--L----------------|
--------------------------|-------------------|-------------------|
--------------------------|--2----------------|--L----------------|


W                   W                   W                   W                 
----------------|-------------------|-------------------|-------------------|
-L--------------|--L----------------|--L----------------|--L----------------|
----------------|-------------------|-------------------|-------------------|
-L--------------|--L----------------|--L----------------|--L----------------|


----|-------|-------|-------|-------|-------|-------|-------|-------|-------|
----|-------|-------|-------|-------|-------|-------|-------|-------|-------|
----|-------|-------|-------|-------|-------|-------|-------|-------|-------|
----|-------|-------|-------|-------|-------|-------|-------|-------|-------|


-------|-------||
-------|-------||
-------|-------||
-------|-------||




Duration Legend
---------------
W - whole
H - half
Q - quarter
E - 8th
S - 16th
T - 32nd
X - 64th
. - note dotted
|-n-|  - n-tuplets


Tablature Legend
----------------
L - tied note
x - dead note
g - grace note
(n) - ghost note
> - accentuded note
NH - natural harmonic
AH - artificial harmonic
TH - tapped harmonic
SH - semi harmonic
PH - pitch harmonic
h - hammer on
p - pull off
b - bend
br - bendRelease
pb - preBend
pbr - preBendRelease
brb - bendReleaseBend
n/ - tremolo bar dip
n - tremolo bar dive
-/n - tremolo bar Release up
/n - tremolo bar inverted dip
/n - tremolo bar return
-n - tremolo bar Release down
S - shift slide
s - legato slide
/ -  slide into from below or out of upwards
 -  slide into from above or out of downwards
~ - vibrato
W - wide vibrato
tr - trill
TP - tremolo picking
T - tapping
S - slap
P - pop
< - fade in
^ - brush up
v - brush down

            
            
Suggest correction
Creating personal tab
Creating personal tab
You can edit any tab online and save it as your Personal.

You can edit, replace or remove any tab part or add personal notes – all changes will be seen only by you.

Personal tabs can be accessed anytime from any device, even offline.
Learn more »
Give kudos to tab author, rate the tab!
1 2 3 4 5
comments
print report bad tab
guest
You may want to rate the tab now too:
select rating
Wanna post a correction for this tab? Suggest correction