Oops, an error
Loading. Please wait.
We have an official Where The Lines Overlap tab made by UG professional guitarists. Check out the tab »
×
27,773 views 9 this week
4 commentsread comments
1 2 3 4 5
x 20
add to favorites
×
Save as Personal and add changes to this tab that will be seen only by you. Learn more ›
×
You can save this tab as Personal to edit and correct it or add notes. All changes will be seen only by you. Learn more »
launch autoscroll
font size
0
reset
how to read this tab
guitar tuner
edit
Autoscroll
slow
fast
+/-
esc
set tempo
stop
Author
Difficulty
Tabbers playing skills
intermediate
advanced +
PLS LIKE OUR BAND FAN PAGE @ FACEBOOK - https://www.facebook.com/SinceAstrid

Tabbed By Francis Twister
From Paramore Philippines(PARAWHORE)

I think other tabs of this song are not that accurate so i made this one...

Paramore- WHERE THE LINES OVERLAP 

Tuning- Standard

Intro-
GtrI
 E                      A         E                      A
|---------------------------00---------------------------00---|
|---------------------------00---------------------------00---|
|-1-1-1-1-1-1-1-1-1-1-1-2-2-44---1-1-1-1-1-1-1-1-1-1-2-2-44---|
|-2-2-2-2-2-2-2-2-2-2-2-2-2-22---2-2-2-2-2-2-2-2-2-2-2-2-22---|
|-2-2-2-2-2-2-2-2-2-2-2-0-0-00---2-2-2-2-2-2-2-2-2-2-0-0-00---|
|-0-0-0-0-0-0-0-0-0-0-0----------0-0-0-0-0-0-0-0-0-0----------|



Verse- 2X
GtrI + GtrII
E                      A        E                      A
|---------------------------00---------------------------00---|
|---------------------------00---------------------------00---|
|-1-1-1-1-1-1-1-1-1-1-1-2-2-44---1-1-1-1-1-1-1-1-1-1-2-2-44---|
|-2-2-2-2-2-2-2-2-2-2-2-2-2-22---2-2-2-2-2-2-2-2-2-2-2-2-22---|
|-2-2-2-2-2-2-2-2-2-2-2-0-0-00---2-2-2-2-2-2-2-2-2-2-0-0-00---|
|-0-0-0-0-0-0-0-0-0-0-0----------0-0-0-0-0-0-0-0-0-0----------|

E                      A        C#m                    B
|-0-0-0-0-0-0-0-0-0-0-0-----00---0-0-0-0-0-0-0-0-0-0-0-0-0-0-0-0-|
|-0-0-0-0-0-0-0-0-0-0-0-----00---0-0-0-0-0-0-0-0-0-0-0-0-0-0-0-0-|
|-6-6-6-6-6-6-6-6-6-6-6-9-9-99---6-6-6-6-6-6-6-6-6-6-6-4-4-4-4-4-|
|-6-6-6-6-6-6-6-6-6-6-6-9-9-99---6-6-6-6-6-6-6-6-6-6-6-4-4-4-4-4-|
|-4-4-4-4-4-4-4-4-4-4-4-7-7-77---4-4-4-4-4-4-4-4-4-4-4-2-2-2-2-2-|
|----------------------------------------------------------------|


  A
------|
------|
--6---|
--7---|
--7---|
--5---|

Chorus-
GtrI
E                 A               E                 A
|-----------------0-0-0-0-0-0-0-0-----------------0-0-0-0-0-0-0-0-|
|-0-0-0-0-0-0-0-0-0-0-0-0-0-0-0-0-0-0-0-0-0-0-0-0-0-0-0-0-0-0-0-0-|
|-1-1-1-1-1-1-1-1-2-2-2-2-2-2-2-2-1-1-1-1-1-1-1-1-2-2-2-2-2-2-2-2-|
|-2-2-2-2-2-2-2-2-2-2-2-2-2-2-2-2-2-2-2-2-2-2-2-2-2-2-2-2-2-2-2-2-|
|-2-2-2-2-2-2-2-2-0-0-0-0-0-0-0-0-2-2-2-2-2-2-2-2-0-0-0-0-0-0-0-0-|
|-0-0-0-0-0-0-0-0-----------------0-0-0-0-0-0-0-0-----------------|
C#m                A               E                 B
|-----------------------------------------------------------------|
|-----------------------------------------------------------------|
|-6-6-6-6-6-6-6-6-2-2-2-2-2-2-2-2-1-1-1-1-1-1-1-1-4-4-4-4-4-4-4-4-|
|-6-6-6-6-6-6-6-6-2-2-2-2-2-2-2-2-2-2-2-2-2-2-2-2-4-4-4-4-4-4-4-4-|2x
|-4-4-4-4-4-4-4-4-0-0-0-0-0-0-0-0-2-2-2-2-2-2-2-2-2-2-2-2-2-2-2-2-|
|---------------------------------0-0-0-0-0-0-0-0-----------------|


GtrII
|----------------------------------------------------------|
|----------------------------------------------------------|
|-131313131313131313131313-16161616-6666666666666666-------|
|----------------------------------------------------------|
|-111111111111111111111111-14141414-4444444444444444-------|
|----------------------------------------------------------|

|--------------------------------------------------------------|
|--------------------------------------------------------------|
|-131313131313131313131313-16161616-999999999999--11-11-11-11--|
|--------------------------------------------------------------|
|-111111111111111111111111-14141414-777777777777--9--9--9--9---|
|--------------------------------------------------------------|

|---------------------------------------------------------------------|
|---------------------------------------------------------------------|
|-1616161616161616-1414141414141414-1313131313131313-1111111111111111-|
|---------------------------------------------------------------------|
|-1414141414141414-1212121212121212-1111111111111111-9-9-9-9-9-9-9-9--|
|---------------------------------------------------------------------|

|-----------------------------------------------------------|
|-----------------------------------------------------------|
|-1616161616161616-1111111111111111-99999999-88888888-------|
|-----------------------------------------------------------|
|-1414141414141414-9-9-9-9-9-9-9-9--77777777-66666666-------|
|-----------------------------------------------------------|

Do Verse-then
 A    B
--------------|
--------------|
-66-66-8------|
-77-77-9------|
-77-77-9------|
-55-55-7------|

Do Chorus
  
Bridge-
  C#m             B/Eb             E              A 
|-----------------------------------------------------------------|
|-----------------------------------------------------------------|
|-6-6-6-6-6-6-6-6-8-8-8-8-8-8-8-8-9-9-9-9-9-9-9-9-----------------|
|-6-6-6-6-6-6-6-6-9-9-9-9-9-9-9-9-9-9-9-9-9-9-9-9-7-7-7-7-7-7-7-7-|
|-4-4-4-4-4-4-4-4-6-6-6-6-6-6-6-6-7-7-7-7-7-7-7-7-7-7-7-7-7-7-7-7-|
|-------------------------------------------------5-5-5-5-5-5-5-5-|
   * * * * * * * * * * * * * * * * * * * * * * * * * * * * * * * *
    C#m             B/Eb             E              A 
|-------------------------------------------------0-0-0-0-0-0-0-0-|
|-------------------------------------------------0-0-0-0-0-0-0-0-|
|-6-6-6-6-6-6-6-6-8-8-8-8-8-8-8-8-9-9-9-9-9-9-9-9-6-6-6-6-6-6-6-6-|
|-6-6-6-6-6-6-6-6-9-9-9-9-9-9-9-9-9-9-9-9-9-9-9-9-7-7-7-7-7-7-7-7-|
|-4-4-4-4-4-4-4-4-6-6-6-6-6-6-6-6-7-7-7-7-7-7-7-7-7-7-7-7-7-7-7-7-|
|-------------------------------------------------5-5-5-5-5-5-5-5-|
   * * * * * * * * * * * * * * * * * * * * * * * *
  C#m             B/Eb             E              A 
|-0-0-0-0-0-0-0-0-0-0-0-0-0-0-0-0-0-0-0-0-0-0-0-0-0-0-0-0-0-0-0-0-|
|-0-0-0-0-0-0-0-0-0-0-0-0-0-0-0-0-0-0-0-0-0-0-0-0-0-0-0-0-0-0-0-0-|
|-6-6-6-6-6-6-6-6-8-8-8-8-8-8-8-8-9-9-9-9-9-9-9-9-6-6-6-6-6-6-6-6-|
|-6-6-6-6-6-6-6-6-9-9-9-9-9-9-9-9-9-9-9-9-9-9-9-9-7-7-7-7-7-7-7-7-|
|-4-4-4-4-4-4-4-4-6-6-6-6-6-6-6-6-7-7-7-7-7-7-7-7-7-7-7-7-7-7-7-7-|
|-------------------------------------------------5-5-5-5-5-5-5-5-|
  C#m             B/Eb             E               
|-0-0-0-0-0-0-0-0-0-0-0-0-0-0-0-0-0-----------------------|
|-0-0-0-0-0-0-0-0-0-0-0-0-0-0-0-0-0-----------------------|
|-6-6-6-6-6-6-6-6-8-8-8-8-8-8-8-8-8-----------------------|
|-6-6-6-6-6-6-6-6-9-9-9-9-9-9-9-9-9-----------------------|
|-4-4-4-4-4-4-4-4-6-6-6-6-6-6-6-6-8-----------------------|
|---------------------------------------------------------|


Chorus-
GtrI
E                  A              E              A 
|-----------------------------------------------------------------|
|-----------------------------------------------------------------|
|-11--------------6-6-6-6-6-6-6-6-1-1-1-1-1-1-1-1-6-6-6-6-6-6-6-6-|
|-22--------------7-7-7-7-7-7-7-7-2-2-2-2-2-2-2-2-7-7-7-7-7-7-7-7-|
|-22--------------7-7-7-7-7-7-7-7-2-2-2-2-2-2-2-2-7-7-7-7-7-7-7-7-|
|-00--------------5-5-5-5-5-5-5-5-0-0-0-0-0-0-0-0-5-5-5-5-5-5-5-5-|
  C#m             A               E              B
|-----------------------------------------------------------------|
|-----------------------------------------------------------------|
|-6-6-6-6-6-6-6-6-2-2-2-2-2-2-2-2-1-1-1-1-1-1-1-1-4-4-4-4-4-4-4-4-|
|-6-6-6-6-6-6-6-6-2-2-2-2-2-2-2-2-2-2-2-2-2-2-2-2-4-4-4-4-4-4-4-4-|2x
|-4-4-4-4-4-4-4-4-0-0-0-0-0-0-0-0-2-2-2-2-2-2-2-2-2-2-2-2-2-2-2-2-|
|---------------------------------0-0-0-0-0-0-0-0-----------------|

GtrII
|----------------------------------------------------------|
|----------------------------------------------------------|
|-99--------------------------------6666666666666666-------|
|-99-------------------------------------------------------|
|-77--------------------------------4444444444444444-------|
|----------------------------------------------------------|

|--------------------------------------------------------------|
|--------------------------------------------------------------|
|-131313131313131313131313-16161616-999999999999--11-11-11-11--|
|--------------------------------------------------------------|
|-111111111111111111111111-14141414-777777777777--9--9--9--9---|
|--------------------------------------------------------------|

|---------------------------------------------------------------------|
|---------------------------------------------------------------------|
|-1616161616161616-1414141414141414-1313131313131313-1111111111111111-|
|---------------------------------------------------------------------|
|-1414141414141414-1212121212121212-1111111111111111-9-9-9-9-9-9-9-9--|
|---------------------------------------------------------------------|

|-----------------------------------------------------------|
|-----------------------------------------------------------|
|-1616161616161616-1111111111111111-99999999-88888888-------|
|-----------------------------------------------------------|
|-1414141414141414-9-9-9-9-9-9-9-9--77777777-66666666-------|
|-----------------------------------------------------------|

Outro-
GtrI
E                  A              E              A 
|-----------------------------------------------------------------|
|-----------------------------------------------------------------|
|-1-1-1-1-1-1-1-1-6-6-6-6-6-6-6-6-1-1-1-1-1-1-1-1-6-6-6-6-6-6-6-6-|
|-2-2-2-2-2-2-2-2-7-7-7-7-7-7-7-7-2-2-2-2-2-2-2-2-7-7-7-7-7-7-7-7-|till fade
|-2-2-2-2-2-2-2-2-7-7-7-7-7-7-7-7-2-2-2-2-2-2-2-2-7-7-7-7-7-7-7-7-|
|-0-0-0-0-0-0-0-0-5-5-5-5-5-5-5-5-0-0-0-0-0-0-0-0-5-5-5-5-5-5-5-5-|

GtrII
<---------7x---------->|
|----------------------|-------------------------------------------|
|----------------------|-------------------------------------------|
|-999-88888-444-66666--|--999-88888-444-66666--111111-1313131313---|
|-999-66666-666-44444--|--999-66666-666-44444--131313-1414141414---|
|----------------------|-------------------------------------------|
|----------------------|-------------------------------------------|

end
|-0~---------------------------------------------------------------|
|-0~---------------------------------------------------------------|
|-1~---------------------------------------------------------------|
|-2~---------------------------------------------------------------|
|-2~---------------------------------------------------------------|
|-0~---------------------------------------------------------------|

            
            
Suggest correction
Creating personal tab
Creating personal tab
You can edit any tab online and save it as your Personal.

You can edit, replace or remove any tab part or add personal notes – all changes will be seen only by you.

Personal tabs can be accessed anytime from any device, even offline.
Learn more »
comments
print report bad tab
4 comments total. Showing first comments.
0 reply
joshr18 21 Dec 06, 2009 01:37 AM

Sounds good and very easy to play and remember, good tab 5*

0 reply
KatastaFlair 10 Jul 07, 2010 09:24 AM

Sounds great to me. Not 100% correct but it's close. 5*

0 reply
KatastaFlair 10 Jul 07, 2010 09:26 AM

Oh and this is how I tab out the end.All on e: 7 4 2 4. 7 4 2 4. 7 2 4 0

guest
You may want to rate the tab now too:
select rating
Wanna post a correction for this tab? Suggest correction