Oops, an error
Loading. Please wait.

Whoa tab

version 2
version 2

Whole song

Interactive

21,957 views 12 this week
5 commentsread comments
1 2 3 4 5
x 14
add to favorites
×
Save as Personal and add changes to this tab that will be seen only by you. Learn more ›
×
You can save this tab as Personal to edit and correct it or add notes. All changes will be seen only by you. Learn more »
launch autoscroll
font size
0
reset
how to read this tab
guitar tuner
edit
Autoscroll
slow
fast
+/-
esc
set tempo
stop
Difficulty
Cool song by a great band with a hot singer, (who I'm dedicating this to lol) hopefully
layout is easy to follow! This is like 90% accurate,
chorus rhythm and solo may be off, but oh well! Its my first tab, so please rate and
not too harsh though!! Enjoy dudes

----------------
Guitar 1: Lead:
----------------

Intro/Verse:
---------------------------------------------------------------|
---------------------------------------------------------------|
----4--/--6----13~----4--/--6----13--\--11---------------------|
----x--/--x----x------x--/--x-----x--\--x----------------------|
----2--/--4----11~----2--/--4----11--\--9----------------------|
---------------------------------------------------------------|

Chorus:
------------14-----------12------------------------------------|
--------12-----------12----------------------------------------|
----13-----------13--------------------------------------------|
---------------------------------------22xxx22xxx22xxx22xxx----|
---------------------------------------22xxx22xxx22xxx22xxx----|
---------------------------------------22xxx22xxx22xxx22xxx----|
'We've got everybody singing...'

Bridge:
---------------------------------------------------------------|
---------------------------------------------------------------|
----------------------99-999-4-44-444--------------------------|
----77-777-777-777----99-999-4-44-444--------------------------|
----77-777-777-777----77-777-2-22-222--------------------------|
----77-777-777-777---------------------------------------------|
'I'll confess...'

Soloy Bit: (Tremelo pick with a wah type thing)
---------------------------------------------------------------|
---------------------------------------------------------------|
----------------------44444444-22222222------------------------|
----77777777---------------------------------------------------|
-------------77777777------------------------------------------|
---------------------------------------------------------------|

Interlude:
---------------------------------------------------------------|
---------------------------------------------------------------|
----------9~----4~---------------------------------------------|
----7~----9~----4~------xxx22xxx22xxxxxx2~---------------------|
----7~----7~----2~------xxx22xxx22xxxxxx2~---------------------|
----7~------------------xxx22xxx22xxxxxx2~---------------------|
'We've got everybody singing'

Final Chorus:
-----14-----12-------11---------11----------14-12-11-----------|
---12-----12------12----12----12--12----12-----------12----12--|
-13-----13-----13----------13--------13------------------13----|
---------------------------------------------------------------|
---------------------------------------------------------------|
---------------------------------------------------------------|

------------14-----------12------------------------------------|
--------12-----------12----------------------------------------|
----13-----------13--------------------------------------------|
---------------------------------------22xxx22xxx22xxx22xxx----|
---------------------------------------22xxx22xxx22xxx22xxx----|
---------------------------------------22xxx22xxx22xxx22xxx----|

Order:
Intro x6
Chorus x2
Verse x4
Chorus x2
Bridge x4
Solo x2
Interlude x1
Final Chorus x2
Bridge x4
Solo x2

------------------
Guitar 2: Rhythm:
------------------

Intro/Verse:
---------------------------------------------------------------|
---------------------------------------------------------------|
----------------------99-999-4-44-444--------------------------|
----77-777-777-777----99-999-4-44-444--------------------------|
----77-777-777-777----77-777-2-22-222--------------------------|
----77-777-777-777---------------------------------------------|


Chorus:
---------------------------------------------------------------|
---------------------------------------------------------------|
----4----------------------------------------------------------|
----4-x16--2-------------22xxx22xxx22xxx22xxx------------------|
----2------2-x16---------22xxx22xxx22xxx22xxx------------------|
-----------2-------------22xxx22xxx22xxx22xxx------------------|
'We've got everybody singing...'

Bridge:
---------------------------------------------------------------|
---------------------------------------------------------------|
----------------------99-999-4-44-444--------------------------|
----77-777-777-777----99-999-4-44-444--------------------------|
----77-777-777-777----77-777-2-22-222--------------------------|
----77-777-777-777---------------------------------------------|
'I'll confess...'

Solo Backing:
---------------------------------------------------------------|
---------------------------------------------------------------|
----------------------99-999-4-44-444--------------------------|
----77-777-777-777----99-999-4-44-444--------------------------|
----77-777-777-777----77-777-2-22-222--------------------------|
----77-777-777-777---------------------------------------------|

Interlude:
---------------------------------------------------------------|
---------------------------------------------------------------|
----------9~----4~---------------------------------------------|
----7~----9~----4~------xxx22xxx22xxxxxx2~---------------------|
----7~----7~----2~------xxx22xxx22xxxxxx2~---------------------|
----7~------------------xxx22xxx22xxxxxx2~---------------------|
'We've got everybody singing'

Final Chorus:
---------------------------------------------------------------|
---------------------------------------------------------------|
----4----------------------------------------------------------|
----4-x16--2-------------22xxx22xxx22xxx22xxx------------------|
----2------2-x16---------22xxx22xxx22xxx22xxx------------------|
-----------2-------------22xxx22xxx22xxx22xxx------------------|
'We've got everybody singing...'

Order:
Intro x6 (First 4 palm muted)
Chorus x2
Verse x4 (First 2 palm muted)
Chorus x2
Bridge x4
Solo x2
Interlude x1
Final Chorus x2
Bridge x4
Solo x2

And thats all!! Enjoy

            
            
Suggest correction
Creating personal tab
Creating personal tab
You can edit any tab online and save it as your Personal.

You can edit, replace or remove any tab part or add personal notes – all changes will be seen only by you.

Personal tabs can be accessed anytime from any device, even offline.
Learn more »
comments
print report bad tab
5 comments total. Showing first comments.
+1 reply
if.i.could.fly 41 Dec 07, 2006 12:28 PM

hey i forgot to mention the tabs in DADGBe

0 reply
x_basskid_x 31 Jan 17, 2007 09:22 AM

To b ehonest i think this tab is rather accurate, and is a job well done. But the fact it's been done by a SCENE KID takes that shine off it. Joking Chris lol.

Good tab.

0 reply
Supadude 10 Jun 15, 2007 09:05 AM

Hmm...? I play G# and A in the Chorus...and then of course the E..and that sounds right...B and E sounds wrong.. sorry...but the rest is good

guest
Wanna post a correction for this tab? Suggest correction