Oops, an error
Loading. Please wait.

A Deathless Song tab

version 1
version 1

Whole song

Interactive

20,824 views 174 this week
7 commentsread comments
1 2 3 4 5
x 13
add to favorites
×
Save as Personal and add changes to this tab that will be seen only by you. Learn more ›
×
You can save this tab as Personal to edit and correct it or add notes. All changes will be seen only by you. Learn more »
launch autoscroll
font size
0
reset
how to read this tab
guitar tuner
edit
Autoscroll
slow
fast
+/-
esc
set tempo
stop
A Deathless Song

All by ear so might not be 100% correct. 
Tabbed by CobjayGuitar

Check out my cover: https://www.youtube.com/watch?v=-1Sgdjg5sJU 

Tunings:
Electric Guitars: Drop b (BF#BEG#C#)
Acoustic Guitars: Standard (EADGBe)

////////////////////////////

[Intro]
(Acoustic)

Guitar 1 (fingerpicked) 

e |-----------------------------------|
B |--------2-----------2--------------|
G |----2-------2---2-------2----------| x8 
D |-----------------------------------|
A |-----------------------------------|
E |--2---2---2---2---2---2------------|

e |-----------------------------------|
B |--------3------------3-------------|
G |----2-------2----2-------2---------| x2 
D |--0---0---0----0---0---0-----------|
A |-----------------------------------|
E |-----------------------------------|

e |-----------------------------------|
B |--------2-----------2--------------|
G |-----------------------------------| x2 
D |-----------------------------------|
A |----4-------4---4-------4----------|
E |--2---2---2---2---2---2------------|

e |---------0-------------0-----------|
B |-----0-------0----0--------0-------|
G |-----------------------------------| 
D |--2----2---2---2----2---2----------|
A |-----------------------------------|
E |-----------------------------------|

e |-----------------------------------|
B |--------2-----------2--------------|
G |-----------------------------------| x2 
D |-----------------------------------|
A |----4-------4---4-------4----------|
E |--2---2---2---2---2---2------------|

e |-----------------------------------|
B |--------3------------3-------------|
G |----2-------2----2-------2---------| 
D |--0---0---0----0---0---0-----------|
A |-----------------------------------|
E |-----------------------------------|


[Intro]
(Acoustic)

Guitar 2

e |------------------------------------------|
B |------------------------------------------|
G |--6h7p6--4-6-4-6-6------------------------| 
D |---------------------------7-6-4---4-6-4--|
A |---------------------------------7--------|
E |------------------------------------------|

e |-----------------------------------------|
B |---------------9-----10-7-9-5-7----------|
G |--6-4-----6-10------------------6--------|  
D |------7-6--------------------------------|
A |-----------------------------------------|
E |-----------------------------------------|

e |-----------------------------------------|
B |-----------------------------------------|
G |------------6-4-----4--------------------|  
D |--4---4-6-7-----7-6---7--6-4-7-6--4------|
A |----4-------------------------------7----|
E |-----------------------------------------|

e |-----------------------------------------|
B |----------------------5------------------|
G |------------6-4--------------------------|  
D |--4---4-6-7-----7-6-7---7-6-4-4h6--------|
A |----4-----------------------------7------|
E |-----------------------------------------|


e |-----------------------------------------|
B |-----------------------------------------|
G |------------6-4-----4--------------------|  
D |--4---4-6-7-----7-6---7--6-4-7-6--4------|
A |----4-------------------------------7----|
E |-----------------------------------------|

e |-----------------------------------------|
B |----------------------5------------------|
G |------------6-4--------------------------|  
D |--4---4-6-7-----7-6-7--------------------|
A |----4------------------------------------|
E |-----------------------------------------|


[Intro]
(Electric) 

Guitar 1 

C#|--------------------------------------------------------|
G#|--------------------------------------------------------|
E |-------------9-7------7---------------------------------|
B |--7---7-9-10-----10-9---10-9-7-10-9-7----7--------------|
F#|----7---------------------------------10----------------|
B |--------------------------------------------------------|

C#|--------------------------------------------------------|
G#|-------------------------8------------------------------|
E |-------------9-7----------------------------------------|
B |--7---7-9-10-----10-9-10---10-9-7-9--7----7-------------|
F#|----7----------------------------------10---------------|
B |--------------------------------------------------------|

C#|--------------------------------------------------------|
G#|--------------------------------------------------------|
E |-------------9-7------7---------------------------------|
B |--7---7-9-10-----10-9---10-9-7-10-9-7----7--------------|
F#|----7---------------------------------10----------------|
B |--------------------------------------------------------|

C#|--------------------------------------------------------|
G#|-------------------------8------------------------------|
E |-------------9-7----------------------------------------|
B |--7---7-9-10-----10-9-10---10-9-7-9--7-----5/7----------|
F#|----7----------------------------------10---------------|
B |--------------------------------------------------------|


[Intro]
(Electric)

Guitar 2

C#|---------------------------------------------------------|
G#|---------------------------------------------------------|
E |---------------------------------------------------------|
B |--7--777-7-777---3-333--5-555----------------------------| x4
F#|--7--777-7-777---3-333--5-555----------------------------|
B |--7--777-7-777---3-333--5-555----------------------------|
        ... 


[Verse]
(Acoustic)

Guitar 1 (strummed) 

e |-2-22-22---2-22-22--2-22-22---0-00-00--------------|
B |-2-22-22---2-22-22--3-33-33---0-00-00--------------|
G |-2-22-22---2-22-22--2-22-22---1-11-11--------------|  x4
D |-4-44-44---4-44-44--0-00-00---2-22-22--------------|
A |-4-44-44---4-44-44--0-00-00---2-22-22--------------|
E |-2-22-22---2-22-22--0-00-00---0-00-00--------------|


[Verse]
(Acoustic)

Guitar 2

e |---------------------------------------------------------------------|
B |------------------------------------------9-10-12-10-9-9h10p9--------|
G |--6h7p6--4-6-4-6-6--------------------------------------------11-----| 
D |---------------------------7-6-4---4-6-4-----------------------------|
A |---------------------------------7-----------------------------------|
E |---------------------------------------------------------------------|


[Verse]
(Electric) 

Both Guitars

C#|--------------------------------------------------------------------|
G#|----------------5-------------------------5-------------------------|
E |---------9------5------------------9------5-------------------------|
B |-5/7-7-7-10-7-3-3--9-7-5---5/7-7-7-10-7-3-3-5-----------------------| x2
F#|-5/7-7-7-7--7-3-3--5-5-5---5/7-7-7-7--7-3-3-5-----3-5---------------|
B |-5/7-7-7-7--7-3-3--5-5-5---5/7-7-7-7--7-3-3-5-3-5-------------------|

                                                 . . 
Guitar 1

C#|------------------------------------------------------------------|
G#|------------------------------------------------------------------|
E |----------------------4-5---4-5-7--9999-7777-9--------------------|
B |--------------------------7---------------------10-9-7------------|
F#|-3-3333-5-5555-7-7777---------------------------------------------|
B |-3-3333-5-5555-7-7777---------------------------------------------|
      ....   ....   ....



C#|-----------------------------------------------------------------|
G#|---------8------------------------------8------------------------|
E |-----------------------------------------------------------------|
B |-7--9-10---10-9------9----9-7---7--9-10---10-9-9-10-9------------|
F#|----------------8-10---10-----------------------------10---------|
B |-----------------------------------------------------------------|



Guitar 2
C#|----------------------------------------------------------|
G#|----------------------------------------------------------|
E |----------------------------------------------------------|
B |----------------------------------------------------------|
F#|-3-3333-5-5555-7-77777777--3-3333-5-5555-7----------------|
B |-3-3333-5-5555-7-77777777--3-3333-5-5555-7----------------|
      ....   ....   ........    ....   ....

C#|------------------------------------------------------------------|
G#|------------------------------------------------------------------|
E |------------------------------------------------------------------|
B |---7-----3---5-------------7--------3----5------------------------|
F#|---7-----3---5-------------7--------3----5------------------------|
B |---7-----3---5-------------7--------3----5------------------------|


[Back to main riff]


[Verse 2]
(Acoustic) 

Guitar 1 (strummed) 

e |-2-22-22---2-22-22--2-22-22---0-00-00--------------|
B |-2-22-22---2-22-22--3-33-33---0-00-00--------------|
G |-2-22-22---2-22-22--2-22-22---1-11-11--------------|  x4
D |-4-44-44---4-44-44--0-00-00---2-22-22--------------|
A |-4-44-44---4-44-44--0-00-00---2-22-22--------------|
E |-2-22-22---2-22-22--0-00-00---0-00-00--------------|


[Verse]
(Acoustic)

Guitar 2

e |---------------------------------------------------------------------|
B |----------------------10p9p7-9-5-7-----9-10-12-10-9-10-10------------|
G |--6h7p6--4-6-4-6-6-----------------6---------------------------------| 
D |---------------------------------------------------------------------|
A |---------------------------------------------------------------------|
E |---------------------------------------------------------------------|


[Verse]
(Electric) 

Both Guitars

C#|--------------------------------------------------------------------|
G#|----------------5-------------------------5-------------------------|
E |---------9------5------------------9------5-------------------------|
B |-5/7-7-7-10-7-3-3--9-7-5---5/7-7-7-10-7-3-3-5-----------------------| x2
F#|-5/7-7-7-7--7-3-3--5-5-5---5/7-7-7-7--7-3-3-5-----3-5---------------|
B |-5/7-7-7-7--7-3-3--5-5-5---5/7-7-7-7--7-3-3-5-3-5-------------------|


                                                 . . 
Guitar 1

C#|------------------------------------------------------------------|
G#|------------------------------------------------------------------|
E |----------------------4-5---4-5-7--9999-7777-9--------------------|
B |--------------------------7---------------------10-9-7------------|
F#|-3-3333-5-5555-7-7777---------------------------------------------|
B |-3-3333-5-5555-7-7777---------------------------------------------|
      ....   ....   ....



C#|-----------------------------------------------------------------|
G#|---------8------------------------------8------------------------|
E |-----------------------------------------------------------------|
B |-7--9-10---10-9------9----9-7---7--9-10---10-9-9-10-9------------|
F#|----------------8-10---10-----------------------------10---------|
B |-----------------------------------------------------------------|



Guitar 2
C#|----------------------------------------------------------|
G#|----------------------------------------------------------|
E |----------------------------------------------------------|
B |----------------------------------------------------------|
F#|-3-3333-5-5555-7-77777777--3-3333-5-5555-7----------------|
B |-3-3333-5-5555-7-77777777--3-3333-5-5555-7----------------|
      ....   ....   ........    ....   ....

C#|------------------------------------------------------------------|
G#|------------------------------------------------------------------|
E |------------------------------------------------------------------|
B |---7-----3---5-------------7--------3----5------------------------|
F#|---7-----3---5-------------7--------3----5------------------------|
B |---7-----3---5-------------7--------3----5------------------------|


[Back to main riff]


[Solo]
(Electric) 

C#|---8p7---------------------------------------------------------10-------|
G#|-------10p8-10\5~------13--------13-15-12h13p12-10-8-10-10~--8~---10~---|
E |--------------------------14--14----------------------------------------|
B |------------------------------------------------------------------------|
F#|------------------------------------------------------------------------|
B |------------------------------------------------------------------------|

C#|--10h11h12--------------------------------------------------------------|
G#|----------------------15~--13~--------------------------15b-15br--------|
E |-----------12h13h14-----------------14----16----17---------------14-----|
B |---------------------------------------14----14----14-------------------|
F#|------------------------------------------------------------------------|
B |------------------------------------------------------------------------|

C#|----------------------------------------------------20-17-19------------|
G#|-----------------------------------13-15-13-12---------------20---------|
E |--9-7----------------9-7-----------------------14---------------19------|
B |------10-9~--7-9-10------10-9-9~-7--------------------------------------|
F#|------------------------------------------------------------------------|
B |------------------------------------------------------------------------|

C#|----17-20-17-22-17-20br-------------------------------------------------|
G#|-20---------------------20br--------------------------------------------|
E |-------------------------------------12-14-12-14—7PH-5-7-7bPH--5-4------|
B |-------------------------------12-14-------------------------------5----|
F#|------------------------------------------------------------------------|
B |------------------------------------------------------------------------|

C#|-15br-15br-12-15--------------------------------------------------------|
G#|-----------------15br-15br-12-15----------------------------------------|
E |---------------------------------14-13-12-------12----------------------|
B |------------------------------------------12-14----14~-12---------------|
F#|------------------------------------------------------------------------|
B |------------------------------------------------------------------------|

C#|----------------20-17-19-------------12---------------------------------|
G#|-13-15-13-12-------------20—12h13h15----15p13p12-15---13p12p10----------|
E |-------------14---------------------------------------------------------|
B |------------------------------------------------------------------------|
F#|------------------------------------------------------------------------|
B |------------------------------------------------------------------------|

C#|------------------------------------------------------------------------|
G#|------------------------------------------------------------------------|
E |-7br-7br5---5~---5-7-7bPH-7bPH-7bPH--5-7-5------------------------------|
B |----------7----7---------------------------7~--5-7----------------------|
F#|------------------------------------------------------------------------|
B |------------------------------------------------------------------------|

[End on main riff]



************************************

| h   Hammer-on
| p   Pull-off
| b   Bend
| br  Bend release
| /   Slide up
| \   Slide down
| ~   Vibrato 

************************************

            
            
Suggest correction
Creating personal tab
Creating personal tab
You can edit any tab online and save it as your Personal.

You can edit, replace or remove any tab part or add personal notes – all changes will be seen only by you.

Personal tabs can be accessed anytime from any device, even offline.
Learn more »
comments
print report bad tab
7 comments total. Showing first comments.
0 reply
Cobjayy 221 Jan 21, 2016 06:20 PM, edited on February 11 2016, 11:32 am

Thanks to Austin Robertson for adding the extra notes for the chords in the pre-chorus! Cheers mate!

0 reply
50fitty 10 Feb 04, 2016 01:39 PM

Well done folks. Very very well done.

0 reply
Tomozaurus 230 Apr 23, 2016 08:47 PM

Excellent job, sounds spot-on, BUT I'm pretty sure this song is played in Drop D for both guitars. The electric part never hits any notes lower than D & some of the acoustic parts are easier to play with drop-tuned fingering.

Just for one example, the very first part is a bit easier like this:
e |-----------------------------------|
B |-----------------------------------|
G |--------6-----------6--------------| x8
D |----7-------7---7-------7----------|
A |-----------------------------------|
D |--4---4---4---4---4---4------------|

guest
You may want to rate the tab now too:
select rating
Wanna post a correction for this tab? Suggest correction