Oops, an error
Loading. Please wait.
We have an official Breaking Point tab made by UG professional guitarists. Check out the tab »
×
49,423 views 15 this week
13 commentsread comments
1 2 3 4 5
x 18
add to favorites
×
Save as Personal and add changes to this tab that will be seen only by you. Learn more ›
×
You can save this tab as Personal to edit and correct it or add notes. All changes will be seen only by you. Learn more »
launch autoscroll
font size
0
reset
how to read this tab
guitar tuner
edit
Autoscroll
slow
fast
+/-
esc
set tempo
stop
Author
Difficulty
                              Band: Parkway Drive
                              Album: Horizons
                              Song: Breaking Point


Email: trailer0@hotmail.com

Drop B tuning


h - Hammer on
p - Pull off
/ - slide up
\ - slide down
. - Palm mute
~ - Vibrato
ph- Pinch harmonic

So i was checking for the tab and i couldnt find a decent one so here it is. :)


 Intro
          Trem picking
|-5000070000800007000050000700008000070000100000800007000050000120000100000-|
|---------------------------------------------------------------------------|
|---------------------------------------------------------------------------|
|---------------------------------------------------------------------------|
|---------------------------------------------------------------------------|
|---------------------------------------------------------------------------|


|-8000070000500007000080000700005000070000800007----------------------------|
|-----------------------------------------------570000780000800100012~------|
|---------------------------------------------------------------------------|
|---------------------------------------------------------------------------|
|---------------------------------------------------------------------------|
|---------------------------------------------------------------------------|


Tapping (Listen to the song to know how long is each tapping)

|---------------------------------------------------------------------------|
|--12p8h12p8h12p8h12p8h12p812p8---10p7h10p7h10p7h10p7-----------------------|
|------------------------------------------------------11p7h11p7h11p7h11p7--|
|---------------------------------------------------------------------------|
|---------------------------------------------------------------------------|
|---------------------------------------------------------------------------|


|---------------------------------------------------------------------------|
|--12p8h12p8h12p8h12p8h12p812p8--13p8h13p8h13p8h13p8--15p10h15p10h15p10/15~-|
|---------------------------------------------------------------------------|
|---------------------------------------------------------------------------|
|---------------------------------------------------------------------------|
|---------------------------------------------------------------------------|


Couldnt figure out the harmonic :(     
                                                     [    X4    ]
|-----------------------------------------------------19-15-0000------------|
|-7-8p7p0--7-8p7p0--7-8p7p0--7-8p7p0----------------------------------------|
|---------------------------------------------------------------------------|
|---------------------------------------------------------------------------|
|---------------------------------------6ph---------------------------------|
|---------------------------------------------------------------------------|


|-19-15-00-17-14-00-15-12-00-17-14-00-15-12-00-14-10-00-15-12-00-14-10------|
|---------------------------------------------------------------------------|
|---------------------------------------------------------------------------|
|---------------------------------------------------------------------------|
|---------------------------------------------------------------------------|
|---------------------------------------------------------------------------|


15 17 and 19 frets are tapped

|-10h12h14t15p14p12p10h12h14t17p14p12p10h12h14t19p14p12p10h12h14t17p14p12p10|
|---------------------------------------------------------------------------|
|---------------------------------------------------------------------------|
|---------------------------------------------------------------------------|
|---------------------------------------------------------------------------|
|---------------------------------------------------------------------------|


 Trem picking   
                                                   [       X4       ]
|-------151719191715------------151719191715--------19p17p15---------18b19~-|
|-151719------------191715151719------------191715----------19p17p15--------|
|---------------------------------------------------------------------------|
|---------------------------------------------------------------------------|
|---------------------------------------------------------------------------|
|---------------------------------------------------------------------------|


Verse I

|-----------------------------------------|---------------------------------|
|-----------------------------------------|---------------------------------|
|-----------------------------------------|---------------------------------|
|-----------------------------------------|--------------------7p5p0--------|
|-----------8h12p8h12-----------7h10p7h10-|--------------------------8p7p0--|
|-8h12p8h12-----------7h10p7h10-----------|-0-00-0-00-0-0-0-0---------------|
                                              ..   ..   .   .  

|---------------------------------------------------------------------------|
|---------------------------------------------------------------------------|
|---------------------------------------------------------------------------|
|-----------------------------------------------------7-5-0-----------------|
|-5p3p0------------------8-7---7-5--------------------------8-7-0-5-3-------|
|--------0-00-0-00-0-0-5-----3-----2-3--0-00-0-00-0-0-----------------------|
           ..   ..   .                    ..   ..   . . . . . . . . .

|---------------------------------------------------------------------------|
|-----------------------------------------------------------T---------------|
|------------------------------------------------------------W--------------|
|-777---------------------------------------------------------I-------------|
|-----888-101010-777-----------8h12p8h12-----------7h10p7h10---C------------|
|--------------------8h12p8h12-----------7h10p7h10--------------E-8h12p8h12-|


                   Breakdown 
|----------------|----------------------------------------------------------|
|----------------|----------------------------------------------------------|
|----------------|----------------------------------------------------------|
|----------------|----------------------------------------------------------|
|--8h12p8h12-----|----------------------------------------------------------|
|------------7---|--0000-0000-00----------------0000-0000-00----------------|
                    .... .... ..                .... .... ..

|---------------------------------------------------------------------------|
|---------------------------------------------------------------------------|
|---------------------------------------------------------------------------|
|---------------------------------------------------------------------------|
|------------------------------------------------------8h12p8h12------------|
|--0000-0000-00--0000-0000-00--0000-0000-00--8h12p8h12-----------7h10p7h10--|
   .... .... ..  .... .... ..  .... .... ..
   
|-------------------------------------------------------------12h15p12------|
|-----------------------------------------------------------13--------13----|
|---------------------------------------------------------12------------12--|
|-------------------------------------------------------14------------------|
|-7h10p7h10-[------------X3------------]--------------15--------------------|
|------------0000-0000-00--0-00-0-00-00--0000-0000-00-----------------------|
             .... .... ..  . .. . .. ..  .... .... ..[          X2        ]

|---------------------------------------------------------------------------|
|---------------------------------------------------------------------------|
|---------------------------------------------------------------------------|
|---------------------------------------------------------------------------|
|-------------------------------------------------------8h12p8h12-----------|
|-000000000-0-0--0-00-0-00-00--000000000-0-0--8h12p8h12-----------7h10p7h10-|
  ......... . .  . .. . .. ..  ......... . .  


|--------------------------------------------------------------12h15p12-----|
|------------------------------------------------------------13--------13---|
|----------------------------------------------------------12------------12-|
|--------------------------------------------------------14-----------------|
|-7h10p7h10--------------------------------------------15-------------------|
|-----------000000000-0-0--0-00-0-00-00--000000000-0-0----------------------|
            ......... . .  . .. . .. ..  ......... . .[          X2        ]

Verse II

|------------------------------------------------------------------4--------|
|-------------------------------------------------------------------T-------|
|--------------------------------------------------------------------I------|
|---------7-7---5------------7---3----------3-------------------------M-----|
|---------5/8---7------------8---5----------5---------8-7---7-5--------E----|
|-0-0-0-0-----0----0-0-0-0-0---0----0-0-0-0---0-0-0-5-----3-----2-3-----S---|
    . . .     .    . . . . .   .    . . . .   . . . 

Bridge

|--------------------------------------------------------|------------------|
|--------------------------------------------------------|------------------|
|--77777777--99999999--1010101010101010--12121214121212--|------------------|
|--xxxxxxxx--xxxxxxxx--x-x-x-x-x-x-x-x---x-x-x-x-x-x-x---|------------------|
|--55555555--77777777--8-8-8-8-8-8-8-8---10101010101010--|------------------|
|--------------------------------------------------------|--000000-000000---|
  [                            x2                      ]    ...... ......


|---------------------------------------------------------------------------|
|--------------------------------------------------------------------T------|
|--7-----7-----7---9-----9-----9---10----10----10--12-----14-----12---W-----|
|--x-----x-----x---x-----x-----x---x-----x-----x---x------x------x-----I----|
|--5-----5-----5---7-----7-----7---8-----8-----8---10-----10-----10-----C---|
|----0-0---0-0---0---0-0---0-0---0---0-0---0-0---0----0-0----0-0----0----E--|
     . .   . .   .   . .   . .   .   . .   . .   .    . .    . .    .

 Solo

|---------------------------------------------------------------------------|
|-----------------------13b15(13)~---10h11p10-------------------------------|
|--5/7/9--14/12-10-9-10-----------------------12-14p12-10----10~------------|
|---------------------------------------------------------12-10~-12-12------|
|---------------------------------------------------------------------------|
|---------------------------------------------------------------------------|


|-----12-13-15b17(15)-------------------------------------------------------|
|--15------------------15p10-13p10----10-15p10-13p10----10-15p10-13p10------|
|----------------------------------12----------------12---------------------|
|---------------------------------------------------------------------------|
|---------------------------------------------------------------------------|
|---------------------------------------------------------------------------|
                                                     
                                                    Trem picking
|---------------------------------------------------13-12-10-12 13-12-10-12-|
|--17p13-15p13----13--17p13-15p13----13-17p13-15p13-------------------------|
|--------------14-----------------14----------------------------------------|
|---------------------------------------------------------------------------|
|---------------------------------------------------------------------------|
|---------------------------------------------------------------------------|


|-13-15-13-12-13-15-13-12-13-15-17-15-13-15-17-15-13-15-17-20-17-15-17-20---|
|---------------------------------------------------------------------------|
|---------------------------------------------------------------------------|
|---------------------------------------------------------------------------|
|---------------------------------------------------------------------------|
|---------------------------------------------------------------------------|
                                     

|17-15-17-20b22~------------------------------------------------------------|
|---------------------------------------------------------------------------|
|---------------------------------------------------------------------------|
|---------------------------------------------------------------------------|
|---------------------------------------------------------------------------|
|---------------------------------------------------------------------------|
                              

Breakdown II

|---------------------------------------------------------------------------|
|--------------------------------------------T------------------------------|
|---------------------------------------------W-----------------------------|
|----------------------------------------------I----------------------------|
|----------------------------------8~--7~-------C---------------------------|
|--000000-000000---000000-000000-0---0---2-3-----E------000000-000000-------|
   ...... ......   ...... ......                        ...... ......


|---------------------------------------------------------------------------|
|---------------------------------------------------------------------------|
|---------------------------------------------------------------------------|
|---------------------------------------------------------------------------|
|---------------------------------------------------------------------------|
|-000000-000000---0-0--0-0--0-0--0-0---000000-000000----000000-000000-------|
  ...... ......   . .  . .  . .  . .   ...... ......    ...... ......


|---------------------------------------------------------------------------|
|---------------------------------------------------------------------------|
|---------------------------------------------------------------------------|
|---------------------------------------------------------------------------|
|--------SLOWER-TEMPO-------------------------------------------------------|
|--0--0---0--0---0--0---0--0------------------------------------------------|
   .  .   .  .   .  .   .  .

Outro

|---------------------------------------------------------------------------|
|---------------------------------------------------------------------------|
|---------------------------------------------------------------------------|
|---------------------7p5p0-------------------------------------------------|
|---------------------------8p7p0-5p3p0-------------------8-7---7-5---------|
|--0-00-0-00-0-0-0-0---------------------0-00-0-00-0-0--5-----3-----2-3-----|
     ..   ..   .   .                       ..   ..   .

|---------------------------------------------------------------------------|
|---------------------------------------------------------------------------|
|---------------------------------------------------------------------------|
|-----------------7-5-0-----------777---------------------------------------|
|-----------------------8-7-0-5-3-----888-101010-7777-----------8h12p8h12---|
|--0-00-0-00-0-0--------------------------------------8h12p8h12-------------|
   . .. . ..   .  . . . . . . . .                 

|--------------------------------------12h15p12------------12h15p12---------|
|---------------------- T------------13--------13--------13--------13-------|
|------------------------W---------12------------12----12------------12-----|
|-------------------------I------14------------------14-----------------12\-|
|------------7h10p7h10-----C---15------------------15-------------------12\-|
|--7h10p7h10----------------E-------------------------------------------12\-|


Its my first tab so give me a break, sorry for the mistakes.








            
            
Suggest correction
Creating personal tab
Creating personal tab
You can edit any tab online and save it as your Personal.

You can edit, replace or remove any tab part or add personal notes – all changes will be seen only by you.

Personal tabs can be accessed anytime from any device, even offline.
Learn more »
comments
print report bad tab
13 comments total. Showing first comments.
+1 reply
G-tar man 10 Jun 01, 2008 03:52 PM

nice. very happy to see a very good COMPLETE interpretation.

0 reply
006schecter 16 Aug 02, 2008 11:54 AM

really well done, great song, great tab :)

+1 reply
anonymous564 124 Aug 12, 2008 01:27 AM

pleasssssseee do a guitar pro

guest
You may want to rate the tab now too:
select rating
Wanna post a correction for this tab? Suggest correction