Oops, an error
Loading. Please wait.

Flesh Bone And Weakness intro tab

version 1
version 1

Intro

Whole song

Interactive

3,445 views 1 this week
1 commentread comment
1 2 3 4 5
1 last vote to show rating
add to favorites
×
Save as Personal and add changes to this tab that will be seen only by you. Learn more ›
×
You can save this tab as Personal to edit and correct it or add notes. All changes will be seen only by you. Learn more »
launch autoscroll
font size
0
reset
how to read this tab
guitar tuner
edit
Autoscroll
slow
fast
+/-
esc
set tempo
stop
                        Flesh, Bones and Weakness
                               Parkway Drive
                    From The 2004 Dont' Close Your Eyes)

Gtr 1 - Tuning Drop B - (B F# B E G# C#)

/ - SLIDE UP TO          h - HAMMER ON
\ - SLIDE DOWN TO        p - PULL OF
~ - VIBRATO              * - PALM MUTE
" - TREMOLO PICKING     [] - ARTIFICAL HARMONIC

0:00-0:13

C#|-------------------------------------------------------------------|
G#|-------------------------------------------------------------------|
E |-------------------------------------------------------------------|
B |-------------------------------------------------------------------|
F#|---0-0-0---0-0-0----1-1-1---0-0-0----3-3-3---3-3-3---0-0-0---1-1-1-|
B |-0-------0--------0-------0--------3-------3-------3-------3-------|

|--------------------------------------------------------------------|
|--------------------------------------------------------------------|
|--------------------------------------------------------------------|
|--------------------------------------------------------------------|
|---7-7-7---7-7-7---5-5-5---5-5-5---8-8-8---8-8-8---7-7-7--7---------|
|-5-------5-------5-------5-------7-------7-------7--------7\--------|


the rest comes up soon..

            
            
Suggest correction
Creating personal tab
Creating personal tab
You can edit any tab online and save it as your Personal.

You can edit, replace or remove any tab part or add personal notes – all changes will be seen only by you.

Personal tabs can be accessed anytime from any device, even offline.
Learn more »
Give kudos to tab author, rate the tab!
1 2 3 4 5
comments
print report bad tab
1 comment total.
0 reply
gman94 10 Jan 11, 2010 05:18 PM

not to sound like a butt or anything but when are you going to finish the song if you are. i just recently discovered this song and i looove it i just cant find a tab

guest
You may want to rate the tab now too:
select rating
Wanna post a correction for this tab? Suggest correction