Oops, an error
Loading. Please wait.

Guns For Show Knives For A Pro tab

version 2
version 2

Whole song

Interactive

1,920 views 1 this week
no commentswrite comment
1 2 3 4 5
2 more votes to show rating
add to favorites
×
Save as Personal and add changes to this tab that will be seen only by you. Learn more ›
×
You can save this tab as Personal to edit and correct it or add notes. All changes will be seen only by you. Learn more »
launch autoscroll
font size
0
reset
how to read this tab
guitar tuner
edit
Autoscroll
slow
fast
+/-
esc
set tempo
stop
Author
GUNS FOR SHOW, KNIVES FOR PRO'S
parkway drive
tuning:drop b
duration:2:42

  intro
c#|----------------------|
g#|----------------------|
e |----------------------|
B |555---666---555---333-| x4
f#|---333---333---333----|
B |----------------------|
   'i saw the disappointment, form across your face
   a mark of solitude, so here's to giving in
                MUSIC STOPS

   yippe kiayay motherf*&%$#'

  breakdown 1  0:12
c#|---------------------------------------------------------------|
g#|---------------------------------------------------------------|
e |---------------------------------------------------------------|
B |0-0-4h7p4h7p4-0-0-0---0-0-4h7p4h7p4-0-0-4h7p4h7-5h8p5h8-3h6p3h6| x4
f#|0-0-----------0-0-0---0-0-----------0-0------------------------|
B |0-0-----------0-0-0---0-0-----------0-0------------------------|
   . .           . . .   . .           . .
   'your eyes have betrayed you, your cries have betrayed you'

   0:36
c#|-------------------------------------------------------------------------|
g#|-------------------------------------------------------------------------|
e |-------------------------------------------------------------------------|
B |555---666---555---333---555---666---888---10ps-0~-------pss--------------| X1
f#|---333---333---333---333---333---333---333--ps-0~-------pss--------------|
B |--------------------------------------------ps-0~-------pss--------------|
                                                    'and ill wear this mask of disgust
                                                     for every day i've met you'
  0:47
c#|----------------------------------------------------|
g#|----------------------------------------------------|
e |----------------------------------------------------|
B |00~000--------------------00~-----------------------| X4
f#|00~000---10---12---8---5~-00~--55558888777733337777-| (let the last 7 on
B |00~000-0----0----0---0----00~-----------------------| the 4th repeat ring)
  'disarm with a smile, your eyes betrayed me'

   breakdown 2  1:10
c#|-------------------------------------------------------------------------|
g#|-------------------------------------------------------------------------|
e |-------------------------------------------------------------------------|
B |0-----0-1-0-0-0000-01-0-0-0000-0-1-0-0-0000-5h8p5h8---5h8p5h8------------| x2
f#|0-----0-1-0-0-0000-01-0-0-0000-0-1-0-0-0000---------5----------7(b)------| (b) on second
B |0-----0-1-0-0-0000-01-0-0-0000-0-1-0-0-0000------------------------------| repeat
   .

   breakdown 2 1:32 (a little slower than the last)
c#|----------------------------------------------------------------------|
g#|----------------------------------------------------------------------|
e |----------------------------------------------------------------------|
B |0-----0-1-0-0-0000-01-0-0-0000-0-1-0-0-0000-5h8p5h8---5h8p5h8---------| x2
f#|0-----0-1-0-0-0000-01-0-0-0000-0-1-0-0-0000---------5----------7------|
B |0-----0-1-0-0-0000-01-0-0-0000-0-1-0-0-0000---------------------------|
   .     'i'll count the seconds until your fucking gone'

   1:49                                  2:01
c#|-------------------------------|     |-------------------------------|
g#|-------------------------------|     |-------------------------------|
e |-------------------------------|     |-------------------------------|
B |-5h8p5h8---5h8p5h8---5h8p5h8---| x3  |-5h8p5h8-00~-------------------|
f#|---------5---------7---------8-|     |---------00~-------------------|
B |-------------------------------|     |---------00~-------------------|
   'i'll hold this allegance, with the hearts of apathy'


   2:06      2:08
c#|-----|--------------------------------------|
g#|-----|--------------------------------------|
e |-----|--------------------------------------|
B |-0---|00--00--00--0-4h7p4h7-5h8p5h8-3h6p3h6-| x3
f#|-0---|00--00--00--0-------------------------| (on the 3rd repeat
B |-0---|00--00--00--0-------------------------| don't do the h's and p's)
    .

  2:31
c#|-----------------------------------------------------------|
g#|-----------------------------------------------------------|
e |------------------------------------22-(as in twenty two)--|
B |0-0---0-0-0----0-0-0-0-00--77775555------------------------|
f#|0-0---0-0-0----0-0-0-0-00----------------------------------|
B |0-0---0-0-0----0-0-0-0-00----------------------------------|

KEY
h      hammer on
p      pull off
~      let ring
(b)    bend slowly
b      bend
bb     bend lots
*      harmonic
/      slide up
\      slide down
ps     power slide
pss    big power slide
pssss  long power slide


_TUNING_INTO_DROP_B ______________________________________________________________________________
|                                                                                        
                   |
|if you don't know how to tune your guitar to drop c, go from standard, tune your 6th 
(the thickest)  |
|down to D (which is drop d tuning), then tune every string down one step so e-C,  a-G,  
 g-F,  b-A,  e-D|
| you'll need a tuner that does chromatic tuning, just press mode on your tuner and      
|                                                                                   |
|guitar, bass                                                                            
                   |
|violin, chromatic etc                                                                   
                   |
|                                                                                        
                   |
| now from drop c, tune every string down one more tone, so all it is is go to drop d, 
tune every string |
| DOWN, twice, NOT up                                                                    
                   |
|___________________________________________________________________________________|

            
            
Suggest correction
Creating personal tab
Creating personal tab
You can edit any tab online and save it as your Personal.

You can edit, replace or remove any tab part or add personal notes – all changes will be seen only by you.

Personal tabs can be accessed anytime from any device, even offline.
Learn more »
Give kudos to tab author, rate the tab!
1 2 3 4 5
comments
print report bad tab
guest
You may want to rate the tab now too:
select rating
Wanna post a correction for this tab? Suggest correction