Oops, an error
Loading. Please wait.
We have an official Romance Is Dead tab made by UG professional guitarists. Check out the tab »
×
68,148 views 18 this week
10 commentsread comments
1 2 3 4 5
x 29
add to favorites
×
Save as Personal and add changes to this tab that will be seen only by you. Learn more ›
×
You can save this tab as Personal to edit and correct it or add notes. All changes will be seen only by you. Learn more »
launch autoscroll
font size
0
reset
how to read this tab
guitar tuner
backing track
0:00
0:00
edit
Autoscroll
slow
fast
+/-
esc
set tempo
stop
Song: Romance Is Dead
Artist: Parkway Drive
Album: Killing With A Smile

   Guitar I
C#|---------------------------------------------------------------------|
G#|---------------------------------------------------------------------|
E||---------------------------------------------------------------------|
B||-3------3----------3---------------3------3----------3-------2-------|
F#|---7-7~---7-7~-3-5---5-0-0-000-0-0---7-7~---7-7~-3-5---5-0-5---3---3-|
B||-----------------------0-0-000-0-0-------------------------------5---|
PM|-----------------------x-x-xxx-x-x-----------------------------------|
 ||
 ||Guitar II
C#|---------------------------------------------------------------------|
G#|---------------------------------------------------------------------|
E||---------------------------------------------------------------------|
B||---------------------------------------------------------------------|
F#|-----------------------0-0-000-0-0-----------------------------------|
B||-----------------------0-0-000-0-0-----------------------------------|
PM|-----------------------x-x-xxx-x-x-----------------------------------|

   Guitar I
C#|-----------------------------------------------------------------------|
G#|-----------------------------------------------------------------------|
E||-------------------------------------------------------------/10-10--9-|
B||-3------3----------3---------------3------3----------3-------/12-12-12-|
F#|---7-7~---7-7~-3-5---5-0-0-000-0-0---7-7~---7-7~-3-5---5-0-5-----------|
B||-----------------------0-0-000-0-0-------------------------------------|
PM|-----------------------x-x-xxx-x-x-------------------------------------|
 ||
 ||Guitar II
C#|-----------------------------------------------------------------------|
G#|-----------------------------------------------------------------------|
E||-----------------------------------------------------------------------|
B||-----------------------------------------------------------------------|
F#|-----------------------0-0-000-0-0-------------------------------------|
B||-----------------------0-0-000-0-0-------------------------------------|
PM|-----------------------x-x-xxx-x-x-------------------------------------|

   Guitars I, II
C#|---------------------------------------------------------------------|
G#|---------------------------------------------------------------------|
E||---------------------------------------------------------------------|
B||-3------3----------3---------------3------3----------3-------2-------|
F#|---7-7~---7-7~-3-5---5-0-0-000-0-0---7-7~---7-7~-3-5---5-0-5---3---3-|
B||-----------------------0-0-000-0-0-------------------------------5---|
PM|-----------------------x-x-xxx-x-x-----------------------------------|

   Guitars I, II
C#|-----------------------------------------------------------------------|
G#|-----------------------------------------------------------------------|
E||-------------------------------------------------------------/10-10--9-|
B||-3------3----------3---------------3------3----------3-------/12-12-12-|
F#|---7-7~---7-7~-3-5---5-0-0-000-0-0---7-7~---7-7~-3-5---5-0-5-----------|
B||-----------------------0-0-000-0-0-------------------------------------|
PM|-----------------------x-x-xxx-x-x-------------------------------------|

   Guitars I, II
C#|---------------------------------------------------------------------|
G#|---------------------------------------------------------------------|
E||---------------------------------------------------------------------|
B||-3------3----------3---------------3------3----------3-------2-------|
F#|---7-7~---7-7~-3-5---5-0-0-000-0-0---7-7~---7-7~-3-5---5-0-5---3---3-|
B||-----------------------0-0-000-0-0-------------------------------5---|
PM|-----------------------x-x-xxx-x-x-----------------------------------|

   Guitar I
C#|------------------------------------------------------------------|
G#|------------------------------------------------------------------|
E||------------------------------------------------------------------|
B||-3------3----------3---------------3------3----------3-------10---|
F#|---7-7~---7-7~-3-5---5-0-0-000-0-0---7-7~---7-7~-3-5---5-0-5----7-|
B||-----------------------0-0-000-0-0--------------------------------|
PM|-----------------------x-x-xxx-x-x--------------------------------|
 ||
 ||Guitar II
C#|------------------------------------------------------------------|
G#|------------------------------------------------------------------|
E||------------------------------------------------------------------|
B||-3------3----------3---------------3------3----------3------------|
F#|---7-7~---7-7~-3-5---5-0-0-000-0-0---7-7~---7-7~-3-5---5-0-5------|
B||-----------------------0-0-000-0-0--------------------------------|
PM|-----------------------x-x-xxx-x-x--------------------------------|

   Guitars I, II
C#|----------------------------------------------------------------------|
G#|----------------------------------------------------------------------|
E||----------------------------------------------------------------------|
B||------------------------------10---------------------------------10---|
F#|------------12---8--------7------7------------12---8/10-8-7-8--7----7-|
B||-12-0-000-0----0---0-10-0---0------12-0-000-0----0--------------------|
PM|----x-xxx-x----x---x----x---x---------x-xxx-x----x--------------------|

   Guitar I
C#|--------------------------------------------------------------------|
G#|--------------------------------------------------------------------|
E||--------------------------------------------------------------------|
B||------------------------------10--------------------------------5---|
F#|------------12---8--------7------7------------12---5/7-5-3-5--3---3-|
B||-12-0-000-0----0---0-10-0---0------12-0-000-0----0------------------|
PM|----x-xxx-x----x---x----x---x---------x-xxx-x----x------------------|
 ||
 ||Guitar II
C#|----------------------------------------------------------------------|
G#|----------------------------------------------------------------------|
E||----------------------------------------------------------------------|
B||------------------------------10---------------------------------10---|
F#|------------12---8--------7------7------------12---8/10-8-7-8--7----7-|
B||-12-0-000-0----0---0-10-0---0------12-0-000-0----0--------------------|
PM|----x-xxx-x----x---x----x---x---------x-xxx-x----x--------------------|

   Guitars I, II
C#|----------------------------------------------------------------------|
G#|----------------------------------------------------------------------|
E||----------------------------------------------------------------------|
B||------------------------------10---------------------------------10---|
F#|------------12---8--------7------7------------12---8/10-8-7-8--7----7-|
B||-12-0-000-0----0---0-10-0---0------12-0-000-0----0--------------------|
PM|----x-xxx-x----x---x----x---x---------x-xxx-x----x--------------------|

   Guitar I
C#|--------------------------------------------------------------------|
G#|--------------------------------------------------------------------|
E||--------------------------------------------------------------------|
B||------------------------------10--------------------------------5---|
F#|------------12---8--------7------7------------12---5/7-5-3-5--3---3-|
B||-12-0-000-0----0---0-10-0---0------12-0-000-0----0------------------|
PM|----x-xxx-x----x---x----x---x---------x-xxx-x----x------------------|
 ||
 ||Guitar II
C#|----------------------------------------------------------------------|
G#|----------------------------------------------------------------------|
E||----------------------------------------------------------------------|
B||------------------------------10---------------------------------10---|
F#|------------12---8--------7------7------------12---8/10-8-7-8--7----7-|
B||-12-0-000-0----0---0-10-0---0------12-0-000-0----0--------------------|
PM|----x-xxx-x----x---x----x---x---------x-xxx-x----x--------------------|

   Guitar I
C#|-----------------------------------------------------------------|
G#|-----------------------------------------------------------------|
E||-----------------------------------------------------------------|
B||---------------------------3-3-3-------------------3-3-3-2-2-2-2-|
F#|-0-----0---0-0-----0---0-0-5-5-5-0-----0---0-0-----5-5-5-3-3-3-3-|
B||-0-0-0-0-0-0-0-0-0-0-0-0-0-------0-0-0-0-0-0-0-0-0---------------|x2
PM|---x-x---x-----x-x---x-------------x-x---x-----x-x---------------|
 ||
 ||Guitar II
C#|-----------------------------------------------------------------|
G#|-----------------------------------------------------------------|
E||-----------------------------------------------------------------|
B||---------------------------7-7-7-------------------7-7-7-5-5-5-5-|
F#|-0-----0---0-0-----0---0-0-8-8-8-0-----0---0-0-----8-8-8-7-7-7-7-|
B||-0-0-0-0-0-0-0-0-0-0-0-0-0-------0-0-0-0-0-0-0-0-0---------------|x2
PM|---x-x---x-----x-x---x-------------x-x---x-----x-x---------------|

   Guitar I
C#|-----------------------------------------------------------------|
G#|-----------------------------------------------------------------|
E||-----------------------------------------------------------------|
B||---------------------------3-3-3-------------------3-3-3-2-2-2-2-|
F#|-0-----0---0-0-------------5-5-5-0-----0---0-0-----5-5-5-3-3-3-3-|
B||-0-0-0-0-0-0-0-----0-0-0-0-------0-0-0-0-0-0-0-0-0---------------|x2
PM|---x-x---x---------x-x-x-x---------x-x---x-----x-x---------------|
 ||
 ||Guitar II
C#|-----------------------------------------------------------------|
G#|-----------------------------------------------------------------|
E||-----------------------------------------------------------------|
B||---------------------------7-7-7-------------------7-7-7-5-5-5-5-|
F#|-0-----0---0-0-------------8-8-8-0-----0---0-0-----8-8-8-7-7-7-7-|
B||-0-0-0-0-0-0-0-----0-0-0-0-------0-0-0-0-0-0-0-0-0---------------|x2
PM|---x-x---x---------x-x-x-x---------x-x---x-----x-x---------------|

   Guitar I
C#|---------------------------------------------------------------------|
G#|---------------------------------------------------------------------|
E||---------------------------------------------------------------------|
B||-3------3----------3---------------3------3----------3-------2-------|
F#|---7-7~---7-7~-3-5---5-0-0-000-0-0---7-7~---7-7~-3-5---5-0-5---3---3-|
B||-----------------------0-0-000-0-0-------------------------------5---|
PM|-----------------------x-x-xxx-x-x-----------------------------------|
 ||
 ||Guitar II
C#|---------------------------------------------------------------------|
G#|---------------------------------------------------------------------|
E||---------------------------------------------------------------------|
B||---------------------------------------------------------------------|
F#|---------------------------------------------------------------------|
B||---------------------------------------------------------------------|
PM|---------------------------------------------------------------------|

   Guitar I
C#|-----------------------------------------------------------------------|
G#|-----------------------------------------------------------------------|
E||-------------------------------------------------------------/10-10--9-|
B||-3------3----------3---------------3------3----------3-------/12-12-12-|
F#|---7-7~---7-7~-3-5---5-0-0-000-0-0---7-7~---7-7~-3-5---5-0-5-----------|
B||-----------------------0-0-000-0-0-------------------------------------|
PM|-----------------------x-x-xxx-x-x-------------------------------------|
 ||
 ||Guitar II
C#|-----------------------------------------------------------------------|
G#|-----------------------------------------------------------------------|
E||-------------------------------------------------------------/10-10--9-|
B||-------------------------------------------------------------/12-12-12-|
F#|-----------------------------------------------------------------------|
B||-----------------------------------------------------------------------|
PM|-----------------------------------------------------------------------|

   Guitars I, II
C#|---------------------------------------------------------------------|
G#|---------------------------------------------------------------------|
E||---------------------------------------------------------------------|
B||-3------3----------3---------------3------3----------3-------2-------|
F#|---7-7~---7-7~-3-5---5-000-000-000---7-7~---7-7~-3-5---5-0-5---3---3-|
B||-----------------------000-000-000-------------------------------5---|
PM|-----------------------xxx-xxx-xxx-----------------------------------|

   Guitars I, II
C#|-----------------------------------------------------------------------|
G#|-----------------------------------------------------------------------|
E||-------------------------------------------------------------/10-10--9-|
B||-3------3----------3---------------3------3----------3-------/12-12-12-|
F#|---7-7~---7-7~-3-5---5-000-000-000---7-7~---7-7~-3-5---5-0-5-----------|
B||-----------------------000-000-000-------------------------------------|
PM|-----------------------xxx-xxx-xxx-------------------------------------|

   Guitars I, II
C#|-----------------|
G#|-----------------|
E||-----------------|
B||---5-3-----3---2-|
F#|-0-3-1-3-0-1-3-0-|
B||-0-----3-0---3---|
PM|-x-x-x-x-x-x-x-x-|

   Guitars I, II
C#|------------------------------------------------------------------------|
G#|------------------------------------------------------------------------|
E||------------------------------------------------------------------------|
B||------------------------------------------------------------------------|
F#|------------------------------------------------------------------------|
B||-0000--0000--0000--0000--0000--0000--0000--0000--0000--0000--0000--0000-|
PM|-xxxx--xxxx--xxxx--xxxx--xxxx--xxxx--xxxx--xxxx--xxxx--xxxx--xxxx--xxxx-|

   Guitar I
C#|--------------------------------------------------------------------------------------|
G#|--------------------------------------------------------------------------------------|
E||--------------------------------------------------------------------------------------|
B||--------------------------------------------------------------------------------------|
F#|--------------------0--0--0--0--0-0--0-0--0--0--0--0--0-0--0-0--0--0--0--0--0-0--0-0--|
B||--------------------0--0--0--0--0-0--0-0--0--0--0--0--0-0--0-0--0--0--0--0--0-0--0-0--|
PM|--------------------x--x--x--x--x-x--x-x--x--x--x--x--x-x--x-x--x--x--x--x--x-x--x-x--|
 ||
 ||Guitar II
C#|--------------------------------------------------------------------------------------|
G#|--------------------------------------------------------------------------------------|
E||---------------0----------------------------------------------------------------------|
B||-3~-------2~-----2--------------------------------------------------------------------|
F#|----5-0-5----3------0--0--0--0--0-0--0-0--0--0--0--0--0-0--0-0--0--0--0--0--0-0--0-0--|
B||--------------------0--0--0--0--0-0--0-0--0--0--0--0--0-0--0-0--0--0--0--0--0-0--0-0--|
PM|--------------------x--x--x--x--x-x--x-x--x--x--x--x--x-x--x-x--x--x--x--x--x-x--x-x--|

   Guitar I
C#|--------------------------------------------------------------------------------------|
G#|--------------------------------------------------------------------------------------|
E||-3~---3-------------------------------------------------------------------------------|
B||----7---7-3~---3----------------------------------------------------------------------|
F#|-------------7---7--0--0--0--0--0-0--0-0--0--0--0--0--0-0--0-0--0--0--0--0--0-0--0-0--|
B||--------------------0--0--0--0--0-0--0-0--0--0--0--0--0-0--0-0--0--0--0--0--0-0--0-0--|
PM|--------------------x--x--x--x--x-x--x-x--x--x--x--x--x-x--x-x--x--x--x--x--x-x--x-x--|
 ||
 ||Guitar II
C#|--------------------------------------------------------------------------------------|
G#|--------------------------------------------------------------------------------------|
E||---------------0----------------------------------------------------------------------|
B||-3~-------2~-----2--------------------------------------------------------------------|
F#|----5-0-5----3------0--0--0--0--0-0--0-0--0--0--0--0--0-0--0-0--0--0--0--0--0-0--0-0--|
B||--------------------0--0--0--0--0-0--0-0--0--0--0--0--0-0--0-0--0--0--0--0--0-0--0-0--|
PM|--------------------x--x--x--x--x-x--x-x--x--x--x--x--x-x--x-x--x--x--x--x--x-x--x-x--|

   Guitars I, II
C#|-----------------------------------------------------------------------------------------|
G#|-----------------------------------------------------------------------------------------|
E||-----------------------------------------------------------------------------------------|
B||-----------------------------------------------------------------------------------------|
F#|--------------------0-0-0-0-0-0--0-0--0-0--0-0-0-0-0-0--0-0--0-0--0-0-0-0-0-0--0-0--0-0--|
B||--------------------0-0-0-0-0-0--0-0--0-0--0-0-0-0-0-0--0-0--0-0--0-0-0-0-0-0--0-0--0-0--|
PM|--------------------x-x-x-x-x-x--x-x--x-x--x-x-x-x-x-x--x-x--x-x--x-x-x-x-x-x--x-x--x-x--|

   Guitar I
C#|----------------------------------------------------------------------------------------|
G#|----------------------------------------------------------------------------------------|
E||-3~---3---------------------------------------------------------------------------------|
B||----7---7-3~---5-2----------------------------------------------------------------------|
F#|-------------7------0-0-0-0-0-0--0-0--0-0--0-0-0-0-0-0--0-0--0-0--0-0-0-0-0-0--0-0--0-0-|
B||--------------------0-0-0-0-0-0--0-0--0-0--0-0-0-0-0-0--0-0--0-0--0-0-0-0-0-0--0-0--0-0-|x2
PM|--------------------x-x-x-x-x-x--x-x--x-x--x-x-x-x-x-x--x-x--x-x--x-x-x-x-x-x--x-x--x-x-|
 ||
 ||Guitar II
C#|---------------------------------------------------------------------------------------------|
G#|---------------------------------------------------------------------------------------------|
E||-10~-------9-9~-------9----------------------------------------------------------------------|
B||-----14-10------10---------------------------------------------------------------------------|
F#|-------------------12----0-0-0-0-0-0--0-0--0-0--0-0-0-0-0-0--0-0--0-0--0-0-0-0-0-0--0-0--0-0-|
B||-------------------------0-0-0-0-0-0--0-0--0-0--0-0-0-0-0-0--0-0--0-0--0-0-0-0-0-0--0-0--0-0-|x2
PM|-------------------------x-x-x-x-x-x--x-x--x-x--x-x-x-x-x-x--x-x--x-x--x-x-x-x-x-x--x-x--x-x-|

   Guitar I
C#|----------------------------------------------------------------------|
G#|----------------------------------------------------------------------|
E||----------------------------------------------------------------------|
B||------------------------------10---------------------------------10---|
F#|------------12---8--------7------7------------12---8/10-8-7-8--7----7-|
B||-12-0-000-0----0---0-10-0---0------12-0-000-0----0--------------------|
PM|----x-xxx-x----x---x----x---x---------x-xxx-x----x--------------------|
 ||
 ||Guitar II
C#|----------------------------------------------------------------------|
G#|----------------------------------------------------------------------|
E||----------------------------------------------------------------------|
B||------------------------------10--------------------------------------|
F#|--0------------------------------7--0---------------------------------|
B||--0---------------------------------0---------------------------------|

   Guitar I
C#|--------------------------------------------------------------------|
G#|--------------------------------------------------------------------|
E||--------------------------------------------------------------------|
B||------------------------------10--------------------------------5---|
F#|------------12---8--------7------7------------12---5/7-5-3-5--3---3-|
B||-12-0-000-0----0---0-10-0---0------12-0-000-0----0------------------|
PM|----x-xxx-x----x---x----x---x---------x-xxx-x----x------------------|
 ||
 ||Guitar II
C#|----------------------------------------------------------------------|
G#|----------------------------------------------------------------------|
E||----------------------------------------------------------------------|
B||------------------------------10---------------------------------10---|
F#|--0------------------------------7-0---------------8/10-8-7-8--7----7-|
B||--0--------------------------------0----------------------------------|
PM|----------------------------------------------------------------------|

   Guitars I, II
C#|----------------------------------------------------------------------|
G#|----------------------------------------------------------------------|
E||----------------------------------------------------------------------|
B||------------------------------10---------------------------------10---|
F#|------------12---8--------7------7------------12---8/10-8-7-8--7----7-|
B||-12-0-000-0----0---0-10-0---0------12-0-000-0----0--------------------|
PM|----x-xxx-x----x---x----x---x---------x-xxx-x----x--------------------|


   Guitar I
C#|--------------------------------------------------------------------|
G#|--------------------------------------------------------------------|
E||--------------------------------------------------------------------|
B||------------------------------10--------------------------------5---|
F#|------------12---8--------7------7------------12---5/7-5-3-5--3---3-|
B||-12-0-000-0----0---0-10-0---0------12-0-000-0----0------------------|
PM|----x-xxx-x----x---x----x---x---------x-xxx-x----x------------------|
 ||
 ||Guitar II
C#|----------------------------------------------------------------------|
G#|----------------------------------------------------------------------|
E||----------------------------------------------------------------------|
B||------------------------------10---------------------------------10---|
F#|------------12---8--------7------7------------12---8/10-8-7-8--7----7-|
B||-12-0-000-0----0---0-10-0---0------12-0-000-0----0--------------------|
PM|----x-xxx-x----x---x----x---x---------x-xxx-x----x--------------------|

   Guitar I
C#|--------------------------------------------------------------------------|
G#|--------------------------------------------------------------------------|
E||--------------------------------------------------------------------------|
B||---------------------8--8---10--10---0------------------10--10---10--10---|
F#|--0-0-0-0-0-0-0-12---8--8---10--10---0-0-0-0-0-0-0-12----8---8---10--10---|
B||--0-0-0-0-0-0-0----0-8--8---10--10---0-0-0-0-0-0-0----0----------10--10---|
PM|--x-x-x-x-x-x-x----x-------------------x-x-x-x-x-x----x-------------------|
 ||
 ||Guitar II
C#|----------------------------------------------------------------------|
G#|----------------------------------------------------------------------|
E||----------------------------------------------------------------------|
B||------------------------------10---------------------------------10---|
F#|------------12---8--------7------7------------12---8/10-8-7-8--7----7-|
B||-12-0-000-0----0---0-10-0---0------12-0-000-0----0--------------------|
PM|----x-xxx-x----x---x----x---x---------x-xxx-x----x--------------------|

   Guitar I
C#|---------------------------------------------------------------------------------------|
G#|---------------------------------------------------------------------------------------|
E||---------------------------------------------------------------------------------------|
B||------------------------------10-------------------------------------------------------|
F#|------------12---8--------7------7------------12---5/7-5-3-5--3-0-3--10/12-10-8-10--8-7|
B||-12-0-000-0----0---0-10-0---0------12-0-000-0----0-------------------------------------|
PM|----x-xxx-x----x---x----x---x---------x-xxx-x----x-------------------------------------|
 ||
 ||Guitar II
C#|---------------------------------------------------------------------------------------------|
G#|---------------------------------------------------------------------------------------------|
E||---------------------------------------------------------------------------------------------|
B||---------------------8--8---10--10---0-------------------------------------------------------|
F#|--0-0-0-0-0-0-0-12---8--8---10--10---0-0-0-0-0-0-0-12---8/10-8-7-8--7-----10/12-10-8-10--8-7-|
B||--0-0-0-0-0-0-0----0-8--8---10--10---0-0-0-0-0-0-0----0---------------10---------------------|
PM|--x-x-x-x-x-x-x----x-------------------x-x-x-x-x-x----x--------------------------------------|

   Guitars I, II
C#|-------------------------------------------|
G#|-------------------------------------------|
E||-------------------------------------------|
B||-------------------------------------------|
F#|-------------------------------------------|
B||-0000--0000--0000--0000--0000--0000--0000--|
PM|-xxxx--xxxx--xxxx--xxxx--xxxx--xxxx--xxxx--|

   Guitar I
C#|-------------------------------------------------------------------------------------------------|
G#|-------------------------------------------------------------------------------------------------|
E||-------------------------------------------------------------------------------------------------|
B||-14-14-------10-10-12-12-14-14-12-12-10-10-------14-14-------10-10-12-12-14-14-12-12-10-10-------|
F#|-------10-10-------------------------------10-10-------10-10-------------------------------10-10-|
B||-------------------------------------------------------------------------------------------------|
 ||
 ||Guitar II
C#|-------------------------------------------------------------------------------------------------|
G#|-------------------------------------------------------------------------------------------------|
E||-------------------------------------------------------------------------------------------------|
B||-3~-----------------------------------------------------------------------------------------7~---|
F#|-3~-----------------------------------------------------------------------------------------5~---|
B||-3~----------------------------------------------------------------------------------------------|

   Guitar I
C#|-----------------------------------------------------------------------------------------|
G#|-----------------------------------------------------------------------------------------|
E||-----------------------------------------------------------------------------------------|
B||-12-12-------9-9-10-10-12-12-10-10-9-9-------12-12-------9-9-10-10-12-12-10-10-9-9-------|
F#|-------10-10---------------------------10-10-------10-10---------------------------10-10-|
B||-----------------------------------------------------------------------------------------|
 ||
 ||Guitar II
C#|-----------------------------------------------------------------------------------------|
G#|-----------------------------------------------------------------------------------------|
E||-----------------------------------------------------------------------------------------|
B||-0~---------------------------------------------------------------------------------7~---|
F#|-0~---------------------------------------------------------------------------------3~---|
B||-0~--------------------------------------------------------------------------------------|

   Guitar I
C#|-------------------------------------------------------------------------------------------------|
G#|-------------------------------------------------------------------------------------------------|
E||-------------------------------------------------------------------------------------------------|
B||-14-14-------10-10-12-12-14-14-12-12-10-10-------14-14-------10-10-12-12-14-14-12-12-10-10-------|
F#|-------10-10-------------------------------10-10-------10-10-------------------------------10-10-|
B||-------------------------------------------------------------------------------------------------|
 ||
 ||Guitar II
C#|-------------------------------------------------------------------------------------------------|
G#|-------------------------------------------------------------------------------------------------|
E||-------------------------------------------------------------------------------------------------|
B||-3~-----------------------------------------------------------------------------------------7~---|
F#|-3~-----------------------------------------------------------------------------------------5~---|
B||-3~----------------------------------------------------------------------------------------------|

   Guitar I
C#|-----------------------------------------------------------------------------------------|
G#|-----------------------------------------------------------------------------------------|
E||-----------------------------------------------------------------------------------------|
B||-12-12-------9-9-10-10-12-12-10-10-9-9-------12-12-------9-9-10-10-12-12-10-10-9-9-------|
F#|-------10-10---------------------------10-10-------10-10---------------------------10-10-|
B||-----------------------------------------------------------------------------------------|
 ||
 ||Guitar II
C#|-----------------------------------------------------------------------------------------|
G#|-----------------------------------------------------------------------------------------|
E||-----------------------------------------------------------------------------------------|
B||-0~---------------------------------------------------------------------------------7~---|
F#|-0~---------------------------------------------------------------------------------3~---|
B||-0~--------------------------------------------------------------------------------------|

   Guitar I
C#|-------------------------------------------------------------------------------------------------|
G#|-------------------------------------------------------------------------------------------------|
E||-------------------------------------------------------------------------------------------------|
B||-14-14-------10-10-12-12-14-14-12-12-10-10-------14-14-------10-10-12-12-14-14-12-12-10-10-------|
F#|-------10-10-------------------------------10-10-------10-10-------------------------------10-10-|
B||-------------------------------------------------------------------------------------------------|
 ||
 ||Guitar II
C#|-------------------------------------------------------------------------------------------------|
G#|-------------------------------------------------------------------------------------------------|
E||-------------------------------------------------------------------------------------------------|
B||-3~-----------------------------------------------------------------------------------------7~---|
F#|-3~-----------------------------------------------------------------------------------------5~---|
B||-3~----------------------------------------------------------------------------------------------|

   Guitar I
C#|-----------------------------------------------------------------------------------------|
G#|-----------------------------------------------------------------------------------------|
E||-----------------------------------------------------------------------------------------|
B||-12-12-------9-9-10-10-12-12-10-10-9-9-------12-12-------9-9-10-10-12-12-10-10-9-9-------|
F#|-------10-10---------------------------10-10-------10-10---------------------------10-10-|
B||-----------------------------------------------------------------------------------------|
 ||
 ||Guitar II
C#|-----------------------------------------------------------------------------------------|
G#|-----------------------------------------------------------------------------------------|
E||-----------------------------------------------------------------------------------------|
B||-0~---------------------------------------------------------------------------------7~---|
F#|-0~---------------------------------------------------------------------------------3~---|
B||-0~--------------------------------------------------------------------------------------|

   Guitar I
C#|-------------------------------------------------------------------------------------------------|
G#|-------------------------------------------------------------------------------------------------|
E||-------------------------------------------------------------------------------------------------|
B||-14-14-------10-10-12-12-14-14-12-12-10-10-------14-14-------10-10-12-12-14-14-12-12-10-10-------|
F#|-------10-10-------------------------------10-10-------10-10-------------------------------10-10-|
B||-------------------------------------------------------------------------------------------------|
 ||
 ||Guitar II
C#|-------------------------------------------------------------------------------------------------|
G#|-------------------------------------------------------------------------------------------------|
E||-------------------------------------------------------------------------------------------------|
B||-3~-----------------------------------------------------------------------------------------7~---|
F#|-3~-----------------------------------------------------------------------------------------5~---|
B||-3~----------------------------------------------------------------------------------------------|

   Guitar I
C#|-----------------------------------------------------------------------------------------|
G#|-----------------------------------------------------------------------------------------|
E||-----------------------------------------------------------------------------------------|
B||-12-12-------9-9-10-10-12-12-10-10-9-9-------12-12-------9-9-10-10-12-12-10-10-9-9-------|
F#|-------10-10---------------------------10-10-------10-10---------------------------10-10-|
B||-----------------------------------------------------------------------------------------|
 ||
 ||Guitar II
C#|-----------------------------------------------------------------------------------------|
G#|-----------------------------------------------------------------------------------------|
E||-----------------------------------------------------------------------------------------|
B||-0~---------------------------------------------------------------------------------7~---|
F#|-0~---------------------------------------------------------------------------------3~---|
B||-0~--------------------------------------------------------------------------------------|

   Guitar I
C#|-------------------------------------------------------------------------------------------------|
G#|-------------------------------------------------------------------------------------------------|
E||-------------------------------------------------------------------------------------------------|
B||-14-14-------10-10-12-12-14-14-12-12-10-10-------14-14-------10-10-12-12-14-14-12-12-10-10-------|
F#|-------10-10-------------------------------10-10-------10-10-------------------------------10-10-|
B||-------------------------------------------------------------------------------------------------|
PM|--x--x--x--x--x--x--x--x--x--x--x--x--x--x--x--x--x--x--x--x--x--x--x--x--x--x--x--x--x--x--x--x-|
 ||
 ||Guitar II
C#|---------------------------|
G#|---------------------------|
E||---------------------------|
B||-3---3-----3-----3---7-7-7-|
F#|-3-3-3-3-3-3-3-3-3-3-5-5-5-|
B||-3-3-3-3-3-3-3-3-3-3-------|
PM|---x---x-x---x-x---x-------|

   Guitar I
C#|-----------------------------------------------------------------------------------------|
G#|-----------------------------------------------------------------------------------------|
E||-----------------------------------------------------------------------------------------|
B||-12-12-------9-9-10-10-12-12-10-10-9-9-------12-12-------9-9-10-10-12-12-10-10-9-9-------|
F#|-------10-10---------------------------10-10-------10-10---------------------------10-10-|
B||-----------------------------------------------------------------------------------------|
PM|--x--x--x--x-x-x--x--x--x--x--x--x-x-x--x--x--x--x--x--x-x-x--x--x--x--x--x--x-x-x--x--x-|
 ||
 ||Guitar II
C#|------------------------------------|
G#|------------------------------------|
E||------------------------------------|
B||-----0-------0-0-0---------12-12-12-|
F#|-0-0-0-0-0-0-0-0-0-0-0-0-0-10-10-10-|
B||-0-0-0-0-0-0-0-0-0-0-0-0-0----------|
PM|-x-x---x-x-x-------x-x-x-x----------|

   Guitar I
C#|-------------------------------------------------------------------------------------------------|
G#|-------------------------------------------------------------------------------------------------|
E||-------------------------------------------------------------------------------------------------|
B||-14-14-------10-10-12-12-14-14-12-12-10-10-------14-14-------10-10-12-12-14-14-12-12-10-10-------|
F#|-------10-10-------------------------------10-10-------10-10-------------------------------10-10-|
B||-------------------------------------------------------------------------------------------------|
PM|--x--x--x--x--x--x--x--x--x--x--x--x--x--x--x--x--x--x--x--x--x--x--x--x--x--x--x--x--x--x--x--x-|
 ||
 ||Guitar II
C#|---------------------------|
G#|---------------------------|
E||---------------------------|
B||-3---3-----3-----3---7-7-7-|
F#|-3-3-3-3-3-3-3-3-3-3-5-5-5-|
B||-3-3-3-3-3-3-3-3-3-3-------|
PM|---x---x-x---x-x---x-------|

   Guitar I
C#|-----------------------------------------------------------------------------------------|
G#|-----------------------------------------------------------------------------------------|
E||-----------------------------------------------------------------------------------------|
B||-12-12-------9-9-10-10-12-12-10-10-9-9-------12-12-------9-9-10-10-12-12-10-10-9-9-------|
F#|-------10-10---------------------------10-10-------10-10---------------------------10-10-|
B||-----------------------------------------------------------------------------------------|
PM|--x--x--x--x-x-x--x--x--x--x--x--x-x-x--x--x---------------------------------------------|
 ||
 ||Guitar II
C#|------------------------------------|
G#|------------------------------------|
E||------------------------------------|
B||-----0-------0-0-0---------12-12-12-|
F#|-0-0-0-0-0-0-0-0-0-0-0-0-0-10-10-10-|
B||-0-0-0-0-0-0-0-0-0-0-0-0-0----------|
PM|-x-x---x-x-x-------x-x-x-x----------|

   Guitar I
C#|-13p5-12p5-15p5-13p5-12p5-10p5-12p5-10p5-8p3-7p3-10p3-8p3-7p3-5p3-7p3-5p3-|
G#|--T----T----T----T----T----T----T----T---T---T----T---T---T---T---T---T---|
E||--------------------------------------------------------------------------|
B||--------------------------------------------------------------------------|
F#|--------------------------------------------------------------------------|
B||--------------------------------------------------------------------------|x2
 ||
 ||Guitar II
C#|--------------------------------------------------------------------------|
G#|--------------------------------------------------------------------------|
E||--------------------------------------------------------------------------|
B||--------------------------------------------------------------------------|
F#|--------------------------------------------------------------------------|
B||--------------------------------------------------------------------------|x2

   Guitar I
C#|-13p5-12p5-15p5-13p5-12p5-10p5-12p5-10p5-8p3-7p3-10p3-8p3-7p3-5p3-7p3-5p3-|
G#|--T----T----T----T----T----T----T----T---T---T----T---T---T---T---T---T---|
E||--------------------------------------------------------------------------|
B||--------------------------------------------------------------------------|
F#|--------------------------------------------------------------------------|
B||--------------------------------------------------------------------------|x2
 ||
 ||Guitar II
C#|-12p5-12p5-12p5-12p5-12p5-12p5-12p5-12p5-10p3-10p3-10p3-10p3-10p3-10p3-10p3-10p3-|
G#|--T----T----T----T----T----T----T----T----T----T----T----T----T----T----T----T---|
E||---------------------------------------------------------------------------------|
B||---------------------------------------------------------------------------------|
F#|---------------------------------------------------------------------------------|
B||---------------------------------------------------------------------------------|x2

   Guitars I, II
C#|----------------------------------------------------|
G#|----------------------------------------------------|
E||----10/12-------------------------------------------|
B||-7--------10-9~-5--9-9-5-7~-3--5-5-7-9~-5--9-9-5-7~-|
F#|-7--------------5-----------3-----------5-----------|
B||-7--------------5-----------3-----------5-----------|x2
   Guitar I
C#|-13p5-12p5-15p5-13p5-12p5-10p5-12p5-10p5-8p3-7p3-10p3-8p3-7p3-5p3-7p3-5p3-|
G#|--T----T----T----T----T----T----T----T---T---T----T---T---T---T---T---T---|
E||--------------------------------------------------------------------------|
B||--------------------------------------------------------------------------|
F#|--------------------------------------------------------------------------|
B||--------------------------------------------------------------------------|x4
 ||
 ||Guitar II
C#|----------------------------------------------------|
G#|----------------------------------------------------|
E||----10/12-------------------------------------------|
B||-7--------10-9~-5--9-9-5-7~-3--5-5-7-9~-5--9-9-5-7~-|
F#|-7--------------5-----------3-----------5-----------|
B||-7--------------5-----------3-----------5-----------|x2

   Guitars I, II
C#|----------------------------|
G#|----------------------------|
E||----10/12-------------------|
B||-7~-------10-9--5~-9-9-5-7~-|
F#|-7~-------------5~----------|
B||-7~-------------5~----------|x4

   Guitar I
C#|-13p5-12p5-15p5-13p5-12p5-10p5-12p5-10p5-8p3-7p3-10p3-8p3-7p3-5p3-7p3-5p3-|
G#|--T----T----T----T----T----T----T----T---T---T----T---T---T---T---T---T---|
E||--------------------------------------------------------------------------|
B||--------------------------------------------------------------------------|
F#|--------------------------------------------------------------------------|
B||--------------------------------------------------------------------------|x4
 ||
 ||Guitar II
C#|----------------------------|
G#|----------------------------|
E||----10/12-------------------|
B||-7~-------10-9--5~-9-9-5-7~-|
F#|-7~-------------5~----------|
B||-7~-------------5~----------|x4 ~FADE OUT



************************************

| ~  Vibrato
| x  Dead note
| /  Slide up
| p  Pull-off
| PM Palm Mute
| T  Tap

************************************

            
            
Suggest correction
Creating personal tab
Creating personal tab
You can edit any tab online and save it as your Personal.

You can edit, replace or remove any tab part or add personal notes – all changes will be seen only by you.

Personal tabs can be accessed anytime from any device, even offline.
Learn more »
comments
print report bad tab
10 comments total. Showing first comments.
0 reply
seokorn 353 Apr 19, 2007 06:50 PM

mate, 100 percent correct

0 reply
confinedforever 977 Jul 13, 2007 07:07 AM

this is the most correct one up great job 5*

0 reply
farty party 16 Oct 11, 2007 07:14 AM

not right

guest
You may want to rate the tab now too:
select rating
Wanna post a correction for this tab? Suggest correction