Oops, an error
Loading. Please wait.

Set To Destroy tab

version 1
version 1

Whole song

Interactive

2,200 views 1 this week
1 commentread comment
1 2 3 4 5
2 more votes to show rating
add to favorites
×
Save as Personal and add changes to this tab that will be seen only by you. Learn more ›
×
You can save this tab as Personal to edit and correct it or add notes. All changes will be seen only by you. Learn more »
launch autoscroll
font size
0
reset
how to read this tab
guitar tuner
edit
Autoscroll
slow
fast
+/-
esc
set tempo
stop
Parkway Drive-SET TO DESTROY

Tuning = Drop A# (A#,F,A#,D#,G,C)

Note: I dont have guitar pro and so havn't seen the other tabs on the site.
     Sorry if it turns out to be very similar.

Still great song and good way to end Deep Blue

LEGEND:

  h= hammer on
  p= pull off
  ~= ring out
x//=pickslide
PM.=Dotted Notes Are Palm Muted

  INTRO BOTH GUITARS               |----------TREM PICK-----------|
 C|---------------|-------------------------------------------------------|
 G|---------------|-------------------------------------------------------|
D#|---------------|-------------------------------------------------------|
A#|3~-------------|-------------------------------------------------------|
 F|3~--DRUM INTRO-|5---8---7---3-5-55557777555588885555777733335555-------|
A#|3~-------------|-000-000-000-------------------------------------------| 
PM                  ... ... ...
 C|---------------|-----GUITAR-1------|------GUITAR-2------|----BOTH------|
 G|---------------|-------------------|--------------------|---GUITARS----|
D#|---------------|-------------------|--------------------|--------------|
A#|---------------|-------------------|--------------------|--3-5---------|
 F|5---8---7---3-5|-0h3h5-5~--5h7h8-7~|-5h7p5-----7h8p7----|--3-5---------|
A#|-000-000-000---|-------5~--------7~|-------7~--------10~|--3-5---------| 
PM  ... ... ...
 C|-----------------------------------------------------------------------|
 G|-----------------------------------------------------------------------|
D#|-----------------------------------------------------------------------|
A#|-----------------------------------------------------------------------|
 F|5---8---7---3-5-55557777555588885555777733335555-5---8---7---3-5-------|
A#|-000-000-000--------------------------------------000-000-000----------| 
PM  ... ... ...                                      ... ... ...
                                               INTERLUDE
 C|-------------------|--------------------|------------------------------|
 G|-------------------|--------------------|------------------------------|
D#|-------------------|--------------------|------------------------------|
A#|-------------------|--------------------|-3-5-0~-----------------------|
 F|-0h3h5-5~--5h7h8-7~|-5h7p5-----7h8p7----|-3-5-0~-(LET-RING)------------|
A#|-------5~--------7~|-------7~--------10~|-3-5-0~-----------------------| 

 C|-------GUITAR-2-----------------|----GUITAR-1--------------------------|
 G|--------------------------------|--------------------------------------|
D#|--------------------------------|--------------------------------------|
A#|--------------------------------|0~------------------------------------|
 F|-x//////////////////////////////|0~----------x///////////////----------|
A#|-x//////////////////////////////|0~----------x///////////////----------| 

   INTRO BOTH GUITARS
 C|-----------------------------------------------------------------------|
 G|-----------------------------------------------------------------------|
D#|-----------------------------------------------------------------------|
A#|-----------------------------------------------------------------------|
 F|5---8---7---3-5-55557777555588885555777733335555-5---8---7---3-5-------|
A#|-000-000-000--------------------------------------000-000-000----------| 
PM  ... ... ...                                      ... ... ...
                                                  INTERLUDE
 C|---GUITAR-1--------|---GUITAR-2---------|------------------------------|
 G|-------------------|--------------------|------------------------------|
D#|-------------------|--------------------|------------------------------|
A#|-------------------|--------------------|--3-5-0~----------------------|
 F|-0h3h5-5~--5h7h8-7~|-5h7p5-----7h8p7----|--3-5-0~-(LET-RING)-----------|
A#|-------5~--------7~|-------7~--------10~|--3-5-0~----------------------|

 C|---------GUITAR-2---------------|-------GUITAR-1-----------------------|
 G|--------------------------------|--------------------------------------|
D#|--------------------------------|--------------------------------------|
A#|--------------------------------|0~------------------------------------|
 F|-x//////////////////////////////|0~---------x///////////////-----------|
A#|-x//////////////////////////////|0~---------x///////////////-----------| 
   
   BREAKDOWN 1
 C|----------------------------------------------------|
 G|----------------------------------------------------|
D#|----------------------------------------------------|
A#|0~----------------------------------------0~--------| x4  
 F|0~-0-0-0--0-0-0--0-0-0-0-0--0-0-0--0-0-0--0~-0-0-0--|
A#|0~-0-0-0--0-0-0--0-0-0-0-0--0-0-0--0-0-0--0~-0-0-0--| 
PM    . . .  . . .  . . . . .  . . .  . . .    . . .
   BREAKDOWN 2                 
 C|-----------------------------------------------------------------------|
 G|-----------------------------------------------------------------------|
D#|-----------------------------------------------------------------------|
A#|1--------------2--------------1--------------2--------------3~---------|
 F|1-0-0-0~-------0-0-0-0~-------1-0-0-0~-------0-0-0-0~-------3~---------|
A#|1-0-0-0~---------0-0-0~-------1-0-0-0~---------0-0-0~-------3~---------| 
PM   . .            . .            . .            . . 
   OUTRO
 C|------------------------------|
 G|------------------------------|
D#|------------------------------|
A#|----------------------------0-|
 F|-5---8----5555777733335555--0-|
A#|--000-000-------------------0-| 
PM   ... ...

            
            
Suggest correction
Creating personal tab
Creating personal tab
You can edit any tab online and save it as your Personal.

You can edit, replace or remove any tab part or add personal notes – all changes will be seen only by you.

Personal tabs can be accessed anytime from any device, even offline.
Learn more »
Give kudos to tab author, rate the tab!
1 2 3 4 5
comments
print report bad tab
1 comment total.
0 reply
Metalhead223 48 Mar 28, 2011 02:45 PM

for the tremolo picking i think its like this
|------------------------------------------|
|------------------------------------------|
|------------------------------------------|
|------------------------------------------|
|--5555-7777-5555-8888-5555-7777-3333-5555-|
|-0----0----0----0----0----0----0----0-----|
. . . . . . . .

guest
Wanna post a correction for this tab? Suggest correction