Oops, an error
Loading. Please wait.

Give Up The Funk bass

version 1
version 1

Whole song

Interactive

43,645 views 48 this week
3 commentsread comments
1 2 3 4 5
x 11
add to favorites
×
Save as Personal and add changes to this tab that will be seen only by you. Learn more ›
×
You can save this tab as Personal to edit and correct it or add notes. All changes will be seen only by you. Learn more »
launch autoscroll
font size
0
reset
guitar tuner
edit
Autoscroll
slow
fast
+/-
esc
set tempo
stop
Author
Unregistered
----------------------------------------------------------------
***Give Up The Funk (Tear The Roof Off The Sucker)-Parliament***
----------------------------------------------------------------


RIFF A:

G|--------9--9--9--7--------------9--9--9--7-------------------------|
D|--7--9--------------9-----7--9--------------9----------------------|
A|-----------------------7-----------------------7-------------------|
E|--------------------------------------------------0--X--X--3--0----|

G|--------9--9--9--7--------9--9--7------------------------------9--9--9--7-|
D|--7--9--------------9--------------9---------------------7--9-------------|
A|-----------------------7---------------7----------------------------------|
E|------------------------------------------0--X--X--3--0-------------------|

G|--------------9-----------------------9--9--9--7--------------------|
D|--9-----7--9--------------------7--9--------------9-----------------|
A|-----7-----------------------------------------------7--7-----------|
E|-----------------0--X--X--3--0-----------------------------5--7--0--|


RIFF B:

G|-----------------------------|
D|--2-----------2--------------|
A|-----4--5--------5--4--5-----|
E|-----------0--------------0--|


transcribed by max asare

            
            
Suggest correction
Creating personal tab
Creating personal tab
You can edit any tab online and save it as your Personal.

You can edit, replace or remove any tab part or add personal notes – all changes will be seen only by you.

Personal tabs can be accessed anytime from any device, even offline.
Learn more »
comments
print report bad tab
3 comments total.
0 reply
quiznosity 103 Oct 12, 2008 06:36 PM

Your first line for riff A:
G|--------9--9--9--7--------------9--9--9--7-------------------------
D|--7--9--------------9-----7--9--------------9----------------------
A|-----------------------7-----------------------7-------------------
E|--------------------------------------------------0--X--X--3--0----

I believe the last part starting on the open e should read:
(Note: dashes/numbers represent 16th notes, first few notes are pickups first measure starts on the 5)
G:------------9--9--7--9-9-97---
D:----56---79--------9-------9--
A:----------------------------7-
E:-030--0-----------------------

0 reply
kibbienation 10 May 22, 2016 07:41 AM

Both riffs are incorrect and doesn't even sound right. One star is the best I can give.

0 reply
jldavoll2 10 Aug 23, 2017 11:54 AM

Pure up your version.

guest
Wanna post a correction for this tab? Suggest correction