Oops, an error
Loading. Please wait.

Zastave solo tab

version 1
version 1

Solo

Whole song

Interactive

532 views 15 this week
no commentswrite comment
1 2 3 4 5
x 4
add to favorites
×
Save as Personal and add changes to this tab that will be seen only by you. Learn more ›
×
You can save this tab as Personal to edit and correct it or add notes. All changes will be seen only by you. Learn more »
launch autoscroll
font size
0
reset
how to read this tab
guitar tuner
edit
Autoscroll
slow
fast
+/-
esc
set tempo
stop
Author
------------------------------------------------------------------------------------------------------------
                                          Artist - Parni Valjak
                                         ***********************
                                             Song - Zastave
                                            ****************
                                          Album - Zastave (2000)   
                                         ************************
                                           Tabbed By - Ayreon77
                                          **********************
------------------------------------------------------------------------------------------------------------
Tuning = Standard                   This Is A request For The Solo Parts



00:11
INTRO 
******
e|-rb-------|-br-------|------h-p----|----------------|-br------|------h-p----|--------------------|
B|-8--5---5-|-8--5---5-|-----5-6-5---|--p--brp--------|-8--5---5|-----5-6-5---|--s--8--s-----------|
G|------7---|------7---|-5-7-------7-|-7-5-7--5-------|------7--|-5-7-------7-|-7\9---9\7-5--------|
D|----------|----------|-------------|----------7-5-7-|---------|-------------|-------------7-7~~~-|
A|----------|----------|-------------|----------------|---------|-------------|--------------------|
E|----------|----------|-------------|----------------|---------|-------------|--------------------|

00:24
e|-br-------|------h-p----|----------------|-br------|------h-p----|--------h------------|
B|-8--5---5-|-----5-6-5---|--p--brp--------|-8--5---5|-----5-6-5---|--s--8-8-10--p-------|
G|------7---|-5-7-------7-|-7-5-7--5-------|------7--|-5-7-------7-|-7\9--------7-5----s-|
D|----------|-------------|----------7-5-7-|---------|-------------|----------------7-7\-|
A|----------|-------------|----------------|---------|-------------|---------------------|
E|----------|-------------|----------------|---------|-------------|---------------------|


-----------------------------------
SMALL SOLOS WITH VERSE 1
*************************
  00:44              00:56     s  01:02          01:07
e|------------------|-----8---7\-|--------------|-------|
B|------8-----------|--s---------|--s---p-------|--s--8-|
G|--h-------p----s--|-7\9---9----|-7\9-7-5-7~~~-|-5\7---|
D|-9-10---10-9--5\7-|------------|--------------|-------|
A|------------------|------------|--------------|-------|
E|------------------|------------|--------------|-------|


-----------------------------------
01:08
SMALL SOLO BETWEEN VERSES
**************************
e|-rb-------|-br-------|------h-p----|----------------|-br------|------h-p----|-------|----------8---s-|
B|-8--5---5-|-8--5---5-|-----5-6-5---|--p--brp--------|-8--5---5|-----5-6-5---|--s--8-|--s--8-10---10\-|
G|------7---|------7---|-5-7-------7-|-7-5-7--5-------|------7--|-5-7-------7-|-7\9---|-7\9------------|
D|----------|----------|-------------|----------7-5-7-|---------|-------------|-------|----------------|
A|----------|----------|-------------|----------------|---------|-------------|-------|----------------|
E|----------|----------|-------------|----------------|---------|-------------|-------|----------------|


-----------------------------------
SMALL SOLOS WITH VERSE 2
*************************
  01:25      01:30              01:37       01:46
e|---s--s---|------------------|---s---s---|--s----p----------|
B|-10\12\10-|-7---8--7---------|-10\12-/10-|-6\8--6-5--p---s--|
G|--9\11\-9-|-7h9----7h9p7-5---|-----------|----------7-5-5\7-|
D|----------|----------------7-|-----------|------------------|
A|----------|------------------|-----------|------------------|
E|----------|------------------|-----------|------------------|


-----------------------------------
02:16
SMALL SOLO BETWEEN VERSES
**************************
e|-rb-------|-br-------|------h-p----|------------------|-br------|------h-p----|------PH------------|
B|-8--5---5-|-8--5---5-|-----5-6-5---|-------brp--------|-8--5---5|-----5-6-5---|----s--8--p---------|
G|------7---|------7---|-5-7-------7-|-5-7-5-7--5-------|------7--|-5-7-------7-|-7-7\9---7-5--------|
D|----------|----------|-------------|------------7-5-7-|---------|-------------|-------------7-7~~~-|
A|----------|----------|-------------|------------------|---------|-------------|--------------------|
E|----------|----------|-------------|------------------|---------|-------------|--------------------|

02:29
e|-br-------|------h-p----|------------------|-br------|------h-p--------|-------------------|
B|-8--5---5-|-----5-6-5---|----p--brp--------|-8--5---5|-----5-6-5-------|-brp---------------|
G|------7---|-5-7-------7-|-5-7-5-7--5-------|------7--|-5-7-------7~~~~-|-7--5-------5----s-|
D|----------|-------------|------------7-5-7-|---------|-----------------|------7-5-7---7~~\-|
A|----------|-------------|------------------|---------|-----------------|-------------------|
E|----------|-------------|------------------|---------|-----------------|-------------------|


-----------------------------------
SMALL SOLOS WITH VERSE 3
*************************
  02:45       02:54
    s           s        s        03:01
e|-8\10-8~~~-|-7\-9-7---7\-9-----|-b--------------|
B|-----------|-8\10-8---8\10--s--|-8--8--p---s----|
G|-----------|---------------7\9-|------7-5-7\9-7-|
D|-----------|-------------------|----------------|
A|-----------|-------------------|----------------|
E|-----------|-------------------|----------------|


-----------------------------------
03:59
SMALL SOLO BETWEEN VERSES
**************************
e|-rb-------|-br-------|------h-p----|----------------|-br------|------h-p----|-------------|
B|-8--5---5-|-8--5---5-|-----5-6-5---|--p--brp--------|-8--5---5|-----5-6-5---|-b-8-rbp-----|
G|------7---|------7---|-5-7-------7-|-7-5-7--5-------|------7--|-5-7-------7-|-7---7--5----|
D|----------|----------|-------------|----------7-5-7-|---------|-------------|-----------7-|
A|----------|----------|-------------|----------------|---------|-------------|-------------|
E|----------|----------|-------------|----------------|---------|-------------|-------------|


e|-br-------|------h-p----|------------------|-br------|------h-p--------|
B|-8--5---5-|-----5-6-5---|----p--brp--------|-8--5---5|-----5-6-5-------|
G|------7---|-5-7-------7-|-5-7-5-7--5-------|------7--|-5-7-------7~~~~-|
D|----------|-------------|------------7-5-7-|---------|-----------------|
A|----------|-------------|------------------|---------|-----------------|
E|----------|-------------|------------------|---------|-----------------|


-----------------------------------
04:22
SOLO
*****                                                                                s s
e|--------------|-5------------------|-----------------------------|--------------|-3\5\3-|
B|---------b----|---8-5--------h-----|-----------------------------|--------------|-3\5\3-|
G|-----5---7~~~-|-------7-5---5-7~~~-|-br--------------------------|--------------|-------|
D|-5-7---7------|-----------7--------|-9-7----7---5-7--p---s-------|--s--5-7------|-------|
A|--------------|--------------------|-----10---7-----5-3-5\7~~~~~-|-5\7-----5~~~-|-------|
E|--------------|--------------------|-----------------------------|--------------|-------|

04:35                                                                           
e|-8--5---------------s---8------s---|---p-------p------------h---8-----b--15-15-b--rp------|------------|
B|------8-rbp---s----8\10---10-10\12-|-10-8-10--8-5-brp---s--8-10---10-15--------15---13-15-|--br------s-|
G|--------7--5-7\9~~-----------------|--------------7--5-7\9--------------------------------|-14-12~~~~\-|
D|-----------------------------------|------------------------------------------------------|------------|
A|-----------------------------------|------------------------------------------------------|------------|
E|-----------------------------------|------------------------------------------------------|------------|

04:46         Not 100% on this and I know It 2 guitars, anyone figure a better way or the other guitar
 GUITAR 1                                just add it the tab.
    p       p       p       p       p       p       p               
e|-8-5---|-8-5---|-8-5---|-8-5---|-8-5---|-7-3---|-7-3---7-|---5-1---5-1---|
B|-----5-|-----5-|-----5-|-----5-|-----5-|-----3-|-----3---|-1-----1-----1-| 
G|-------|-------|-------|-------|-------|-------|---------|---------------|  
D|-------|-------|-------|-------|-------|-------|---------|---------------|   
A|-------|-------|-------|-------|-------|-------|---------|---------------|    
E|-------|-------|-------|-------|-------|-------|---------|---------------|     


p   = Pull Off
h   = Hammer On
b   = Bend
rb  = Release Bend
rbp = Release Bend Pulloff
br  = Bend Release
brp = Bend Release Pulloff
/   = Slide
UB  = Union Bend
PH  = Pinch Harmonic



ENJOY.........

            
            
Suggest correction
Creating personal tab
Creating personal tab
You can edit any tab online and save it as your Personal.

You can edit, replace or remove any tab part or add personal notes – all changes will be seen only by you.

Personal tabs can be accessed anytime from any device, even offline.
Learn more »
comments
print report bad tab
guest
You may want to rate the tab now too:
select rating
Wanna post a correction for this tab? Suggest correction