Oops, an error
Loading. Please wait.

How To Make A Love Song tab

version 4
version 4

Whole song

896 views 1 this week
2 commentsread comments
1 2 3 4 5
x 3
add to favorites
×
Save as Personal and add changes to this tab that will be seen only by you. Learn more ›
×
You can save this tab as Personal to edit and correct it or add notes. All changes will be seen only by you. Learn more »
launch autoscroll
font size
0
reset
how to read this tab
guitar tuner
edit
Autoscroll
slow
fast
+/-
esc
set tempo
stop
Author
Song:       How To Make A Love Song
Band:       Parokya ni Edgar
Tabbed by:  Kenshit of Surigao City


So here it goes:

TUNING:
 -Standard [e B G D A E]

LEGEND:
 ~ -let ring
 s -slide


        D                      Bm
The 1st part of this song, I guess
      Em                   A
should start with something sweet
      D               Bm
cause love songs often do, and you know
Em             A
me, i'm such a geek
   G               D
For songs that I can sing to you
          G                   D
and I'm hoping this could be one
    G                     D
and I hope that you would like
            Em               A
me.. este.. like it when i'm done


    D           Bm           Em
The 2nd part is easy to mess up with
         A
something cheesy
   D                  Bm
So I better choose my words cause I
      Em            A
don't want it to be mushy...
     G                     D
coz' that's the thing with love songs
    G                D
and that is the tricky part
     G                 D
it's hard not to sound corny when you're
Em               D          D
singing from the heart


    Bm                                  A
And when the chorus comes,I must come up
              
with something clever
    Bm                                   A
for you it's just a love song but for me
            
it's now or never!
    Em              A
And though I tried my best to make it
Bm            D
beautiful and true
G             D           
I could never make a song as
Em           D          D
beautiful as you...

--here comes the solo:

1st part: D-Bm-Em-A

e|----------7------------------------------|
B|------------10-7------8-8-7--------10~---|
G|--7----7-----------9-7-------7-9----9~---|
D|-----9--------------------------7--------|
A|-----------------------------------------|
E|-----------------------------------------|

2nd part: D-Bm-Em-A

e|-----------------10-12--15-14-12-10-12--------------|
B|---------8-8s10--10---------------------10s12-10~---|
G|--7----7---7s9---9----------------------------------|
D|-----9----------------------------------------------|
A|----------------------------------------------------|
E|----------------------------------------------------|

3rd part: G-D-G-D-G-D-Em-D

e|--12-14-15----------------------------|
B|-----------12-14-15-------12----------|
G|--------------------12-14----------12-|
D|-----------------------------12-14----|
A|--------------------------------------|
E|--------------------------------------|

e|--12-14-15----------------------------|
B|-----------12-14-15-------12----------|
G|--------------------12-14-------12-12-|
D|-----------------------------12-------|
A|--------------------------------------|
E|--------------------------------------|

e|--12-14-15----------------------------|
B|-----------12-14-15-------12----------|
G|--------------------12-14----------12-|
D|-----------------------------12-14----|
A|--------------------------------------|
E|--------------------------------------|

e|--15-14-12-10--17~-----17~---17~---17~---17~---|
B|-------------------15-----15----15----15-------|
G|-----------------------------------------------|
D|-----------------------------------------------|
A|-----------------------------------------------|
E|-----------------------------------------------|

    Bm                                  A
and when the chorus comes again,I must say
              
something clever
    Bm                                   A
coz' for you it's just a love song but for me
            
it's now or never!
    Em              A
and though I tried my best to make it
Bm            D
beautiful and true
G             D           
I could never make a song as
Em           D 
Beautiful as you...
G                    D
I could never make a love song
Em          
as beautiful 
    D~
as you...

_END_


This piecework is dedicated to Miss Bella and to my band-mates Rani, Louie, and Kessi.

            
            
Suggest correction
Creating personal tab
Creating personal tab
You can edit any tab online and save it as your Personal.

You can edit, replace or remove any tab part or add personal notes – all changes will be seen only by you.

Personal tabs can be accessed anytime from any device, even offline.
Learn more »
Give kudos to tab author, rate the tab!
1 2 3 4 5
comments
print report bad tab
2 comments total.
0 reply
riskbreaker_16 21 Dec 22, 2009 08:10 PM

copy paste lang sige lang...

0 reply
kac_03 71 May 12, 2010 02:30 AM

but u rated it anyway.. im sure u got it right.
tingnan mu nalang yung date kung sino talaga nag copy-paste.

guest
You may want to rate the tab now too:
select rating
Wanna post a correction for this tab? Suggest correction