Oops, an error
Loading. Please wait.

Mang Jose chords

version 1
version 1

Whole song

Interactive

69,663 views 105 this week
19 commentsread comments
1 2 3 4 5
x 15
add to favorites
×
Save as Personal and add changes to this tab that will be seen only by you. Learn more ›
×
You can save this tab as Personal to edit and correct it or add notes. All changes will be seen only by you. Learn more »
launch autoscroll
font size
0
reset
transpose
0
reset
display chords
guitar tuner
edit
Autoscroll
slow
fast
+/-
esc
set tempo
stop
Author
Strumming
There is no strumming pattern for this song yet. and get +5 IQ
[Intro]

e|--------------------------------------------------------------|
B|--------------------------------------------------------------|
G|-10-------13-14-----------------8-------8-10------------------|
D|-10—(10x)-13-14----8-------8-6--8-(10x)-8-10--10--------------|
A|-8--------11-12----8—(10x)-8-6--6-------6-8---10--------------|
E|-------------------6-------6-4----------------8---------------|


[Verse]

(do power chords)

F                      Bb
 Tuwing sasapit ang dilim,

Eb                    C
 Naghahasik na ng lagim.

F                                         Bb
 Ang mga kaaway ng ating taga-paga-liga-tas,

Eb                       C
 Lahat sila'y nagsisilabas.
                 F                   Bb
 Pagsapit ng dilim, wala kang makikita,

Eb                         C
 Kundi ang kanilang mga mata.

F                                        Bb
 Na nakakatakot, lalo na kung color yellow

Eb                              C
 Matatakot pati na ang mga multo


[Pre-Chorus]

F Bb Eb C

 Tulong Tulong, saklolo
 Kailangan ko ng tulong mo..


[Chorus]

e|--------------------------------------------------------------|
B|--------------------------------------------------------------|
G|-10-------13-14-----------------8-------8-10------------------|
D|-10—(10x)-13-14----8-------8-6--8-(10x)-8-10--10--------------|
A|-8--------11-12----8—(10x)-8-6--6-------6-8---10--------------|
E|-------------------6-------6-4----------------8---------------|

F Bb Eb C

Mang Jose, mang jose
Ang superhero na pwedeng arkilahin
Mang jose, parang si Daimos din
Na pagkatapos ay bigla kang sisingilin
Mang jose!


[Instrumental]

e|--------------------------------------------------------------|
B|--------------------------------------------------------------|
G|-10-------13-14-----------------8-------8-10------------------|
D|-10—(10x)-13-14----8-------8-6--8-(10x)-8-10--10--------------|
A|-8--------11-12----8—(10x)-8-6--6-------6-8---10--------------|
E|-------------------6-------6-4----------------8---------------|


[Verse]

(do power chords)

F                      Bb
 Tuwing sasapit ang dilim,

Eb                    C
 Naghahasik na ng lagim.

F                                         Bb
 Ang mga kaaway ng ating taga-paga-liga-tas,

Eb                       C
 Lahat sila'y nagsisilabas.
                 F                   Bb
 Pagsapit ng dilim, wala kang makikita,

Eb                         C
 Kundi ang kanilang mga mata.

F                                        Bb
 Na nakakatakot, lalo na kung color yellow

Eb                              C
 Matatakot pati na ang mga multo


[Pre-Chorus]

F Bb Eb C

 Tulong Tulong, saklolo
 Kailangan ko ng tulong mo..


[Chorus]

e|--------------------------------------------------------------|
B|--------------------------------------------------------------|
G|-10-------13-14-----------------8-------8-10------------------|
D|-10—(10x)-13-14----8-------8-6--8-(10x)-8-10--10--------------|
A|-8--------11-12----8—(10x)-8-6--6-------6-8---10--------------|
E|-------------------6-------6-4----------------8---------------|

F Bb Eb C

Mang Jose, mang jose
Ang superhero na pwedeng arkilahin
Mang jose, parang si Daimos din
Na pagkatapos ay bigla kang sisingilin
Mang jose!


[Chorus]

e|--------------------------------------------------------------|
B|--------------------------------------------------------------|
G|-10-------13-14-----------------8-------8-10------------------|
D|-10—(10x)-13-14----8-------8-6--8-(10x)-8-10--10--------------|
A|-8--------11-12----8—(10x)-8-6--6-------6-8---10--------------|
E|-------------------6-------6-4----------------8---------------|

F Bb Eb C

Mang Jose, mang jose
Ang superhero na pwedeng arkilahin
Mang jose, parang si Daimos din
Na pagkatapos ay bigla kang sisingilin
Mang jose!


[Outro]

mangs Jose!
Jejeng Jeng jeng jeng!

            
            
Suggest correction
Creating personal tab
Creating personal tab
You can edit any tab online and save it as your Personal.

You can edit, replace or remove any tab part or add personal notes – all changes will be seen only by you.

Personal tabs can be accessed anytime from any device, even offline.
Learn more »
comments
print report bad tab
19 comments total. Showing first comments.
0 reply
geetajero 10 Sep 25, 2005 08:33 PM

mali chords mo babaan mo lng nang tono E-A-D-B hindi F-Bb-Eb-C

0 reply
seph901 50 Sep 28, 2005 11:42 PM

tama

0 reply
astig21 10 Oct 07, 2005 07:41 PM

E - A - D - B hear mo maigi..makikita mo, pati ung intro, sa E nagsimula kaya E tlga ung start..

guest
You may want to rate the tab now too:
select rating
Wanna post a correction for this tab? Suggest correction